Need Help? Customer Support 1-866-236-8417
Reply
Page 4 of 204 FirstFirst ... 2 3 4 5 6 14 54 104 ... LastLast
Results 91 to 120 of 6111
  1. #91
    Registered User lacey23's Avatar
    Join Date: Feb 2002
    Location: canada
    Posts: 5,058
    Rep Power: 1658
    lacey23 is just really nice. (+1000) lacey23 is just really nice. (+1000) lacey23 is just really nice. (+1000) lacey23 is just really nice. (+1000) lacey23 is just really nice. (+1000) lacey23 is just really nice. (+1000) lacey23 is just really nice. (+1000) lacey23 is just really nice. (+1000) lacey23 is just really nice. (+1000) lacey23 is just really nice. (+1000) lacey23 is just really nice. (+1000)
    lacey23 is offline
    thanks guys, repped.

    I'll try and learn some new stuff I guess. always wanted to learn some bluesy stuff so maybe I'll try some robert johnson, muddy waters and try getting some lessons.
    lacey23 on ssb
    Reply With Quote

  2. #92
    Registered User Corpse Grinder's Avatar
    Join Date: Jan 2007
    Age: 25
    Posts: 179
    Rep Power: 128
    Corpse Grinder has no reputation, good or bad yet. (0) Corpse Grinder has no reputation, good or bad yet. (0) Corpse Grinder has no reputation, good or bad yet. (0) Corpse Grinder has no reputation, good or bad yet. (0) Corpse Grinder has no reputation, good or bad yet. (0) Corpse Grinder has no reputation, good or bad yet. (0) Corpse Grinder has no reputation, good or bad yet. (0) Corpse Grinder has no reputation, good or bad yet. (0) Corpse Grinder has no reputation, good or bad yet. (0) Corpse Grinder has no reputation, good or bad yet. (0) Corpse Grinder has no reputation, good or bad yet. (0)
    Corpse Grinder is offline

    Smile

    i play mostly death, progressive and shred/neoclassical metal on guitar. played for 5 years, have awesome technique. id suggest to start with learning chords, scales, notes on guitar, and sight reading overall, basics are most important
    Pump Til' You Puke!
    Reply With Quote

  3. #93
    Banned iBswole's Avatar
    Join Date: Jun 2004
    Location: Australia
    Posts: 3,734
    Rep Power: 0
    iBswole is just really nice. (+1000) iBswole is just really nice. (+1000) iBswole is just really nice. (+1000) iBswole is just really nice. (+1000) iBswole is just really nice. (+1000) iBswole is just really nice. (+1000) iBswole is just really nice. (+1000) iBswole is just really nice. (+1000) iBswole is just really nice. (+1000) iBswole is just really nice. (+1000) iBswole is just really nice. (+1000)
    iBswole is offline
    sorry guys i've been gone for a while - so what r the lessons requests? someone wanted a how to hold a guitar, how to pick how to hold a pick guides yeah? Damn i need to look up pictures and stuff - i'll get to it - sorry for going to fast, alot of people have different levels of proficiency with the guitar.

    And if any of you shred kings can help out with the lessons and questions please do.
    Reply With Quote

  4. #94
    Banned iBswole's Avatar
    Join Date: Jun 2004
    Location: Australia
    Posts: 3,734
    Rep Power: 0
    iBswole is just really nice. (+1000) iBswole is just really nice. (+1000) iBswole is just really nice. (+1000) iBswole is just really nice. (+1000) iBswole is just really nice. (+1000) iBswole is just really nice. (+1000) iBswole is just really nice. (+1000) iBswole is just really nice. (+1000) iBswole is just really nice. (+1000) iBswole is just really nice. (+1000) iBswole is just really nice. (+1000)
    iBswole is offline
    Ok so lets really get down and dirty :

    THE BASICS OF PLAYING GUITAR



    Here we have a very bad mspaint picture of a guitar - with labels. These are some of the most improtant terms thrown about and as a beginner its best to know what the enck is, the bridge, the headstock etc is located.



    Ok this is what the guitar page wiki says - its descriptive but not good enough without pictures. - I"LL EDIT IN PICTURES
    http://en.wikibooks.org/wiki/Guitar/The_Basics
    Holding The Guitar

    Sitting down: Sit up straight on a chair, with your feet on the ground. Place the waist of your guitar on the right leg, keeping the guitar completely vertical across its width. Rest your right upper arm on the side of the guitar so that it is comfortable. Your arm should bend with your thumb resting on the sixth string parallel to it. Your hand should cover the soundhole. On an electric, imagine a soundhole and keep your hand where the soundhole would be. Take your fingers of your left hand and rest it on the strings around the fifth fret. Place your right thumb behind the fingers directly behind the neck. Your shoulders should be relaxed. Now, lean forward slightly and relax. Most people without serious back ailments should feel comfortable and should be able to stay in this position without effort. If you are not, something is not right.

    [edit] Using a Pick

    Hold the pick inbetween your index finger and your thumb.

    [edit] Using the Fretboard

    Depress the guitar string firmly to the fretboard, close to the metal fret. If the string is not depressed enough, the string will strike the frets when vibrating and the note played will have a "buzzing" sound. If the string is depressed too hard, the pitch of the note will be higher than desired, so you'll have to practice to get the right amount of pressure.
    remember to keep your thumb directly behind the fingers on the fretting hand - only when you play the high E and and B strings are you allowed to edge your thumb to the top.

    Also for some chord positions its perfectly alright to let your thumb peak over the top as shown here with the C chord.


    courtesy of wikipedia's section on chords(muisc)
    its brilliant if you're looking for chord theory
    http://en.wikipedia.org/wiki/Chord_(music)
    Reply With Quote

  5. #95
    Banned iBswole's Avatar
    Join Date: Jun 2004
    Location: Australia
    Posts: 3,734
    Rep Power: 0
    iBswole is just really nice. (+1000) iBswole is just really nice. (+1000) iBswole is just really nice. (+1000) iBswole is just really nice. (+1000) iBswole is just really nice. (+1000) iBswole is just really nice. (+1000) iBswole is just really nice. (+1000) iBswole is just really nice. (+1000) iBswole is just really nice. (+1000) iBswole is just really nice. (+1000) iBswole is just really nice. (+1000)
    iBswole is offline
    hey can any of you shred heads help me tab this song out? I beleive i need a capo on the 5th fret.

    http://www.youtube.com/watch?v=O9mEKMz2Pvo
    Reply With Quote

  6. #96
    Afraid of Being Normal Striver's Avatar
    Join Date: Jul 2004
    Location: England
    Posts: 13,780
    Rep Power: 14325
    Striver is a splendid one to behold. (+10000) Striver is a splendid one to behold. (+10000) Striver is a splendid one to behold. (+10000) Striver is a splendid one to behold. (+10000) Striver is a splendid one to behold. (+10000) Striver is a splendid one to behold. (+10000) Striver is a splendid one to behold. (+10000) Striver is a splendid one to behold. (+10000) Striver is a splendid one to behold. (+10000) Striver is a splendid one to behold. (+10000) Striver is a splendid one to behold. (+10000)
    Striver is offline
    www.chopsfromhell.com

    I have the motherload CD. That **** is advanced and fun as hell.
    Apply The Mind And The Body Will Follow.

    If it's worth doing, it's worth OVER doing.

    Current 170S/180D/165B Goal: 275S/300D/200B. Natty.

    ☆☆☆υк ¢яєω☆☆☆ *Resident Fat Consultant*
    ***Eat Untill We Hate Ourselves Crew***


    "lol, he keeps trying to suck on my nipple through my shirt (no man boobs)" - Jked4life
    Reply With Quote

  7. #97
    Poohjibwa breathless_sleep's Avatar
    Join Date: Feb 2007
    Location: Minnesota, United States
    Age: 45
    Posts: 30
    Rep Power: 0
    breathless_sleep has no reputation, good or bad yet. (0) breathless_sleep has no reputation, good or bad yet. (0) breathless_sleep has no reputation, good or bad yet. (0) breathless_sleep has no reputation, good or bad yet. (0) breathless_sleep has no reputation, good or bad yet. (0) breathless_sleep has no reputation, good or bad yet. (0)
    breathless_sleep is offline

    Smile This is great!

    It is an inspiration to see a guitar thread here. I want to get back into playing.

    I agree this should be sticky.
    "Life is stranger than death."
    Reply With Quote

  8. #98
    Registered User HEAVYMETALMATT's Avatar
    Join Date: Feb 2007
    Posts: 1,287
    Rep Power: 423
    HEAVYMETALMATT has a spectacular aura about. (+250) HEAVYMETALMATT has a spectacular aura about. (+250) HEAVYMETALMATT has a spectacular aura about. (+250) HEAVYMETALMATT has a spectacular aura about. (+250) HEAVYMETALMATT has a spectacular aura about. (+250) HEAVYMETALMATT has a spectacular aura about. (+250) HEAVYMETALMATT has a spectacular aura about. (+250) HEAVYMETALMATT has a spectacular aura about. (+250) HEAVYMETALMATT has a spectacular aura about. (+250) HEAVYMETALMATT has a spectacular aura about. (+250) HEAVYMETALMATT has a spectacular aura about. (+250)
    HEAVYMETALMATT is offline
    oh s***! its guitar 101 here. hey bros (and sis'), i got a site for ya that i love. ultimate-guitar.com. every tab and transcription under the sun. you can even put your own on there. if you have power tab on you pc it supports that to. enjoy.
    Reply With Quote

  9. #99
    Retired Pirate LethalOnGuitarZ's Avatar
    Join Date: Mar 2004
    Location: Leeds, West Yorkshire, United Kingdom (Great Britain)
    Age: 28
    Posts: 8,109
    Rep Power: 2037
    LethalOnGuitarZ is just really nice. (+1000) LethalOnGuitarZ is just really nice. (+1000) LethalOnGuitarZ is just really nice. (+1000) LethalOnGuitarZ is just really nice. (+1000) LethalOnGuitarZ is just really nice. (+1000) LethalOnGuitarZ is just really nice. (+1000) LethalOnGuitarZ is just really nice. (+1000) LethalOnGuitarZ is just really nice. (+1000) LethalOnGuitarZ is just really nice. (+1000) LethalOnGuitarZ is just really nice. (+1000) LethalOnGuitarZ is just really nice. (+1000)
    LethalOnGuitarZ is offline
    Hey guys.... great thread... dunno why i didn't see it earlier, I'm gonna make a post on beginners' theory sometime next week, based mainly on Bill Arnold's book... I'll start with chord construction and intervals, very helpful stuff to know if you're into learning music theory.
    Reply With Quote

  10. #100
    Sometimes I can be a dick jkeithc82's Avatar
    Join Date: May 2005
    Posts: 22,947
    Rep Power: 192535
    jkeithc82 has a reputation beyond repute. Second best rank possible! (+100000) jkeithc82 has a reputation beyond repute. Second best rank possible! (+100000) jkeithc82 has a reputation beyond repute. Second best rank possible! (+100000) jkeithc82 has a reputation beyond repute. Second best rank possible! (+100000) jkeithc82 has a reputation beyond repute. Second best rank possible! (+100000) jkeithc82 has a reputation beyond repute. Second best rank possible! (+100000) jkeithc82 has a reputation beyond repute. Second best rank possible! (+100000) jkeithc82 has a reputation beyond repute. Second best rank possible! (+100000) jkeithc82 has a reputation beyond repute. Second best rank possible! (+100000) jkeithc82 has a reputation beyond repute. Second best rank possible! (+100000) jkeithc82 has a reputation beyond repute. Second best rank possible! (+100000)
    jkeithc82 is offline

    Thumbs up

    This thread is simply awesome.

    Reps for life to the OP.
    Sinners in the hands of an angry Mod.

    Mod is a concept...by which, we measure, our pain.
    Reply With Quote

  11. #101
    R[̲̅ə̲̅٨̲̅٥̲̅٦̲̅]ution snwdevl10's Avatar
    Join Date: Feb 2006
    Posts: 2,346
    Rep Power: 3459
    snwdevl10 is a glorious beacon of knowledge. (+2500) snwdevl10 is a glorious beacon of knowledge. (+2500) snwdevl10 is a glorious beacon of knowledge. (+2500) snwdevl10 is a glorious beacon of knowledge. (+2500) snwdevl10 is a glorious beacon of knowledge. (+2500) snwdevl10 is a glorious beacon of knowledge. (+2500) snwdevl10 is a glorious beacon of knowledge. (+2500) snwdevl10 is a glorious beacon of knowledge. (+2500) snwdevl10 is a glorious beacon of knowledge. (+2500) snwdevl10 is a glorious beacon of knowledge. (+2500) snwdevl10 is a glorious beacon of knowledge. (+2500)
    snwdevl10 is offline
    Originally Posted by LethalOnGuitarZ View Post
    Hey guys.... great thread... dunno why i didn't see it earlier, I'm gonna make a post on beginners' theory sometime next week, based mainly on Bill Arnold's book... I'll start with chord construction and intervals, very helpful stuff to know if you're into learning music theory.
    That would be very cool...I've been trying to read up on things but everything is so over my head right now .

    Here is a cool little program I found to help memorize the notes all over the fretboard. They recommend doing it once and day and seeing the improvement over time. I'm sure most of you guys know these already but it's pretty cool.

    http://www.francoisbrisson.com/fretb...rdwarrior.html
    Reply With Quote

  12. #102
    Retired Pirate LethalOnGuitarZ's Avatar
    Join Date: Mar 2004
    Location: Leeds, West Yorkshire, United Kingdom (Great Britain)
    Age: 28
    Posts: 8,109
    Rep Power: 2037
    LethalOnGuitarZ is just really nice. (+1000) LethalOnGuitarZ is just really nice. (+1000) LethalOnGuitarZ is just really nice. (+1000) LethalOnGuitarZ is just really nice. (+1000) LethalOnGuitarZ is just really nice. (+1000) LethalOnGuitarZ is just really nice. (+1000) LethalOnGuitarZ is just really nice. (+1000) LethalOnGuitarZ is just really nice. (+1000) LethalOnGuitarZ is just really nice. (+1000) LethalOnGuitarZ is just really nice. (+1000) LethalOnGuitarZ is just really nice. (+1000)
    LethalOnGuitarZ is offline
    Don't know if this has already been posted, but very useful link for quick chord references (I actually have a poster on my room )

    http://www.all-guitar-chords.com/
    Reply With Quote

  13. #103
    Banned iBswole's Avatar
    Join Date: Jun 2004
    Location: Australia
    Posts: 3,734
    Rep Power: 0
    iBswole is just really nice. (+1000) iBswole is just really nice. (+1000) iBswole is just really nice. (+1000) iBswole is just really nice. (+1000) iBswole is just really nice. (+1000) iBswole is just really nice. (+1000) iBswole is just really nice. (+1000) iBswole is just really nice. (+1000) iBswole is just really nice. (+1000) iBswole is just really nice. (+1000) iBswole is just really nice. (+1000)
    iBswole is offline
    I came across some awsome vids off Youtube - some kid in norway demonstrates his version to alot of songs that I think the music section will 'approve' of. this kids got his technique down. notice how he's not straining to paly at his speeds - so slowly progres with speed - make sure you can play it cleanly and easily. then worry abt speed. Good luck.

    http://www.youtube.com/profile_video...ataclysmichael

    plus he uses guitar pro to learn his songs -

    I HIGHLY SUGGEST YOU ALL DOWNLOAD THE DEMO - AND GOOGLE TABS IN GP FORMAT AND LEARN EM - EXCELLENT SOURCE FOR TIMING AND PRECISION LEARNING

    Last edited by Trickae; 02-27-2007 at 07:58 AM.
    Reply With Quote

  14. #104
    Cuttin' Cuz I'm Fat AdamL00001's Avatar
    Join Date: Oct 2006
    Location: Merrillville, IN
    Posts: 2,364
    Rep Power: 3120
    AdamL00001 is a glorious beacon of knowledge. (+2500) AdamL00001 is a glorious beacon of knowledge. (+2500) AdamL00001 is a glorious beacon of knowledge. (+2500) AdamL00001 is a glorious beacon of knowledge. (+2500) AdamL00001 is a glorious beacon of knowledge. (+2500) AdamL00001 is a glorious beacon of knowledge. (+2500) AdamL00001 is a glorious beacon of knowledge. (+2500) AdamL00001 is a glorious beacon of knowledge. (+2500) AdamL00001 is a glorious beacon of knowledge. (+2500) AdamL00001 is a glorious beacon of knowledge. (+2500) AdamL00001 is a glorious beacon of knowledge. (+2500)
    AdamL00001 is offline
    This is the greatest thread in the history of git-tar. I've only been playing for a week (but longtime musician), and this thread is amazing.
    "Do or do not. There is no 'try'."

    Failure is never an option. It's just a temporary result of pushing your limits.

    "I know how it feels to expect to get a fair shake, but they won't let you forget that you're the underdog, and you got to be twice as good..."
    Reply With Quote

  15. #105
    Banned iBswole's Avatar
    Join Date: Jun 2004
    Location: Australia
    Posts: 3,734
    Rep Power: 0
    iBswole is just really nice. (+1000) iBswole is just really nice. (+1000) iBswole is just really nice. (+1000) iBswole is just really nice. (+1000) iBswole is just really nice. (+1000) iBswole is just really nice. (+1000) iBswole is just really nice. (+1000) iBswole is just really nice. (+1000) iBswole is just really nice. (+1000) iBswole is just really nice. (+1000) iBswole is just really nice. (+1000)
    iBswole is offline
    glad you guys like it -

    Lesson 1 update
    i know this sounds lame but its taking me a while to get a begginer lesson up like how to hold a pick and strumming - i'm looking for google vids and images of cyber fret to write a decent one.

    lesson 2
    a bit more advanced ... More keen on doing this today or tommorrow - but its gonna be a number of licks to have you going up and down the fret board. Lots of licks from necrophagist, megadeth, maiden. children of bodom, dream theatre, malmsteen and racer x (w/ paul gilbert). I'll throw in a couple of my own that helped me should be nicely put together soon.

    will update you on this soon
    Reply With Quote

  16. #106
    Banned iBswole's Avatar
    Join Date: Jun 2004
    Location: Australia
    Posts: 3,734
    Rep Power: 0
    iBswole is just really nice. (+1000) iBswole is just really nice. (+1000) iBswole is just really nice. (+1000) iBswole is just really nice. (+1000) iBswole is just really nice. (+1000) iBswole is just really nice. (+1000) iBswole is just really nice. (+1000) iBswole is just really nice. (+1000) iBswole is just really nice. (+1000) iBswole is just really nice. (+1000) iBswole is just really nice. (+1000)
    iBswole is offline

    Phrasing shaping and building your own riffs : Part 1 [written by trickae]




    here is the harmonic minor position chart - the dots indicate where you'll be placing your fingeres and the bars going down the chart are the frets.

    so for our practicing sake - say we play this in the scale of A harmonic minor.
    here n = 5
    but i want the misc-music section to play the scales in this progression
    Code:
    -------------------------------------------0-1-4---4---1-
    ----------------------------------0-1-3---------------------3--1-0-
    ---------------------------1-2----------------------------------------2-1
    --------------------0--2-3-------------------------------------------------3-2-0
    -----------0--2-3------------------------------------------------------------------3-2-0
    -0-1-4 ------------------------------------------------------------------------------------4--1-0
    This pattern is from the phrigian major where i set everything in bar 1 = fret 0 or the open notes.

    next:
    Code:
    ------------------------------------------------4-5-7 - and then backwards i'm too lazy to type it out
    ---------------------------------------5-6-
    ----------------------------4--5--7
    ---------------------6--7
    ------------5-7-8
    -4-5-7-8
    next:

    then play the harmonic pattern (pattern 1), then work your way up the next by playing the next consecutive patters son
    harmonic at the 5th fret , locrian at the 7th, major at the 8th fret, dorian at the 10th fret, phrygian at the 12th, lydian at the 13th and finnally
    the superlocrian at the 16th fret.
    Last edited by Trickae; 03-02-2007 at 09:09 PM.
    Reply With Quote

  17. #107
    Banned iBswole's Avatar
    Join Date: Jun 2004
    Location: Australia
    Posts: 3,734
    Rep Power: 0
    iBswole is just really nice. (+1000) iBswole is just really nice. (+1000) iBswole is just really nice. (+1000) iBswole is just really nice. (+1000) iBswole is just really nice. (+1000) iBswole is just really nice. (+1000) iBswole is just really nice. (+1000) iBswole is just really nice. (+1000) iBswole is just really nice. (+1000) iBswole is just really nice. (+1000) iBswole is just really nice. (+1000)
    iBswole is offline
    so what next? All the cool shred heads in the misc tell me never to play in shapes and i should learn scales along a string.

    - well lets do that then but lets take it one step further for the next part of the lesson.
    [feel free to learn them along the strings as well - but i'm lazy and it'll broing tabing all that stuff out]

    So ...

    lets take a look at this riff:
    Code:
    -------------------------------------------------------7-8---10--12-11--12
    ----------------------------------------------9--10
    -----------------------------------7-9-10
    --------------------6-7-9-10-
    ---------3-5-7-8
    -4-5-7
    so we're taking a single line from each of the positions we learnt and put em together to form a sweet sound lick.

    what else can we do?
    note for later - add more self written licks
    Reply With Quote

  18. #108
    Banned iBswole's Avatar
    Join Date: Jun 2004
    Location: Australia
    Posts: 3,734
    Rep Power: 0
    iBswole is just really nice. (+1000) iBswole is just really nice. (+1000) iBswole is just really nice. (+1000) iBswole is just really nice. (+1000) iBswole is just really nice. (+1000) iBswole is just really nice. (+1000) iBswole is just really nice. (+1000) iBswole is just really nice. (+1000) iBswole is just really nice. (+1000) iBswole is just really nice. (+1000) iBswole is just really nice. (+1000)
    iBswole is offline
    Now lets move onto some insane licks by popular bands that will get you one step closer to shredom!
    yngwie exercise - ending added by trickae
    Code:
    note:played on the highe e and b strings intially!
    
    e--------------------------13--10--12-13-12---------------------------12--8-10-12-10-8
    b-13--10--12-13-12---------------------------12--8-10-12-10-8--------------------------
    
    e------------------------10-5--8--10-8-5
    b-10-6--8--10-8-6------------------------
    [my ending]
    e- 16-13--12
    b----------------15-13-12
    g------------------------------14----~13~-14
    d-
    Code:
    necrophagist intro
    -12-13-16-13-12----12--------------------------------------------------------------------------------------12-13-16----------------------------13--16-17-16-17-16-13-16-13
    -----------------------15-----13--15---12-13-15-13-12-----12---------------------------12-13-15-----------------------------13-15-17-----------------------------------------
    ------------------------------------------------------------------14-----13-14----10-13-14------------------------------13-14-16-------------------------------------------------------
    -
    -
    -
    |--------------pattern 1-------------|---------------pattern 2--------------|--------pattern 3----------------------| ------------pattern 4---------------|---------pattern 5------|
    children of bodom lick
    Code:
    ----------------------------------------------------------------8-7----------------------------7
    ----------------------------------5------------------------7--------10-8-7-----7--8--10
    ------------5-4---------------4----7-5-4-------------8---------------------9--------------
    --------4-------7-5-4-----5--------------7/--/---/9---------------------------------------
    -2--6--------------------7----------------------------------------------------------------------
    ----------------------------------------------------------------------------------------------
    
    -
    ------------------------------------------------------------------------------12-10-12--8-12--7-8-
    -----------------------------------------5-4-------------9-8-9-11-12--------------------------------9
    --------2--5-3-2-------------------4------7--5--4-----------------------------------------------------
    -0-3----------------5--3--2---6------------------------------------------------------------------------
    -------------------------------------------------------------------------------------------------------------

    an old classic - can you guess what it is [reps for correct answers]
    Code:
    --------------------------------------------------------------------19-17-16-17--19-17-16-17--20--
    -------------------------15-------------17----18-17-16-17
    -16-14-13-14-17------17-16-17
    -
    -
    -
    
    
    -17-20--17-h19p17------17--17-h19p17------17--17-h19p17--------------x2
    -------------------------20-------------------20----------------------20-19-17
    -
    -
    -
    -
    
    
    -12-13-15-15-----17-15-13------(x2)|
    ------------------------------------17-15---|--13-15-17-17---18-17-15
    ------------------------------------------------------------------------------------17-16--(x2)
    -
    -
    -
    
    repeat and squeeze in this ending
    
    -----17-19-20-19-17------17
    -----------------------------21
    -------------------------------------21-22-21
    ---------------------------------------------------17-19-16-17
    --------------------------------------------------------------------19
    Last edited by Trickae; 03-02-2007 at 10:58 PM.
    Reply With Quote

  19. #109
    Banned iBswole's Avatar
    Join Date: Jun 2004
    Location: Australia
    Posts: 3,734
    Rep Power: 0
    iBswole is just really nice. (+1000) iBswole is just really nice. (+1000) iBswole is just really nice. (+1000) iBswole is just really nice. (+1000) iBswole is just really nice. (+1000) iBswole is just really nice. (+1000) iBswole is just really nice. (+1000) iBswole is just really nice. (+1000) iBswole is just really nice. (+1000) iBswole is just really nice. (+1000) iBswole is just really nice. (+1000)
    iBswole is offline
    another lick - heres a lillte apr practice from the corssroads guitar dual by steve vai - check it out on youtube here : http://www.youtube.com/watch?v=xhNdPTrs6sQ

    Code:
    http://www.ultimate-guitar.com/tabs/s/steve_vai/crossroads_duel_tab.htm
      Q=130
      S S S S S S  S S  S S  S S S S S S   S S S S S S S S  S S S S S S S S
    |----------------8-12-8--------------|------------------------------------|
    |-------------10--------10-----------|---------------9-12p9---------------|
    |---------5-9--------------9-5-------|-----------7-9--------9p7-----------|
    |-------7----------------------7-----|-------6-9----------------9-6-------|
    |-----7------------------------------|---5-7------------------------7-5---|
    |-5h8----------------------------5h8-|-7----------------------------------|
    
    
      S S S  S S  S S S  S S S  S S  S S S
    |--------------------------------------|
    |-----------------8-10-8---------------|
    |---------------9--------9-------------|
    |----------7-11------------11-7--------|
    |-----7-10----------------------10-7---|
    |-5-9--------------------------------9-|
    
    
      S  S S S S  S  S  S  S  S  S  S S S S  S
    |------------------10-13-10------------------|
    |---------------10----------10---------------|
    |----------7-10----------------10-7----------|
    |--------7--------------------------7--------|
    |------8------------------------------8------|
    |-5h10----------------------------------10---|
    
    
      S  S S  S S  S  S  S  S  S  S  S S  S S  S
    |--------------------------------------------|
    |----------------------12--------------------|
    |----------------10-13----13-10--------------|
    |-----------9h12----------------12-9---------|
    |------8h11--------------------------11-8----|
    |-7h10------------------------------------10-|
    
    
                              H.=H
              PM------------|
      S S S S S S S S S S S S S  S S  S
    |-------------------5---8-5-12-8-16---|
    |---------------5-----5---------------|
    |-----------5-----5-------------------|
    |-------7-----7-----------------------|
    |---7-----7---------------------------|
    |-5---8-------------------------------|
    
    
                   Q=150
        H.      Q       S  S  S  S  S  S  S  S  S  S  S  S  S  S  S  S
    |-(16)---------||-----------------------------17-15-13--------------||
    |--------------||o----13-17-13----15-17-15-13----------17-15-13----o||
    |--------------||--14----------16-------------------------------16--||
    |--------------||---------------------------------------------------||
    |--------------||o-------------------------------------------------o||
    |---0----------||---------------------------------------------------||
    
    
       S  S  S  S  S  S  S  S  S  S  S  S  S  S  S  S
    |-------------17-15-13----------19-17-15----------|
    |----14-17-14----------17-14-15----------18-17-15-|
    |-14----------------------------------------------|
    |-------------------------------------------------|
    |-------------------------------------------------|
    |-------------------------------------------------|
    
    
       S  S  S  S  S  S  S  S  S  S  S  S  S  S  S  S
    |----------------------------17-15-13-------------|
    |-------15----18-17-15----------------17-15-13----|
    |----16----16----------16-17-------------------16-|
    |-17----------------------------------------------|
    |-------------------------------------------------|
    |-------------------------------------------------|
    
    
       S  S  S  S  S  S  S  S  S  S  S  S  S  S  S  S
    |-------------------------------------------17----||
    |-------------18-17-15----------18-15----------16s||
    |----14-17-14----------17-13-16-------17-14-------||
    |-15----------------------------------------------||
    |-------------------------------------------------||
    |-------------------------------------------------||
    some michael angelo batio - small lick that sounds awsome off speed kills
    http://www.ultimate-guitar.com/tabs/..._kills_tab.htm
    Code:
     
      Q.    Q.    E  E    +Q.    a  Q   Q   S  S  S
    |-12----------------|----------------------------|
    |-------15----13-13-|-(13)--------------------13-|
    |-------------------|--------14s12--10-----14----|
    |-------------------|-------------------15-------|
    |-------------------|----------------------------|
    |-------------------|----------------------------|
    
                                                              |--3--|
       Q.    Q.    E  a  E    +E   E E  S S  S  S  S  S  a E  S  S  S
    |-12-------------------|--------------------------------------------|
    |-------15----13-------|---------------------------------------13---|
    |----------------14s12-|-(12)-10-9-10-9---------------------14------|
    |----------------------|----------------12-10------------15---------|
    |----------------------|----------------------12-10-10s8------------|
    |----------------------|--------------------------------------------|
    
                                                            ~~~~~~~~~~
                                                                       |--3--|  |------6-------|
       Q.    Q.    E  E    +Q.    a  Q   E  E     +S   S    H     +E   S  S  S  S  S  S  S  S  S
    |-12----------------|--------------------------------|---------------------------------------|
    |-------15----13-13-|-(13)---------------------------|---------------------------------------|
    |-------------------|--------14s12--10h12b14-(12)p10-|-12----(12)----------------------------|
    |-------------------|--------------------------------|---------------------------14-15-17-15-|
    |-------------------|--------------------------------|------------------14-15-17-------------|
    |-------------------|--------------------------------|------------15-17----------------------|
    
       |------6-------|  |------6-------|  |------6-------|  |------6-------|
       S  S  S  S  S  S  S  S  S  S  S  S  S  S  S  S  S  S  S  S  S  S  S  S
    |-------------------------------------------------------------------------|
    |----------------------------------------------------------------15-18-17-|
    |----------------------------14-17-16-14----------------14-16-17----------|
    |-14----------------14-15-17-------------17-15-14-15-17-------------------|
    |----17-15-14-15-17-------------------------------------------------------|
    |-------------------------------------------------------------------------|
    
       |------6-------|  |------6-------|  |------6-------|  |------6-------|
       S  S  S  S  S  S  S  S  S  S  S  S  S  S  S  S  S  S  S  S  S  S  S  S
    |----------------------------15-20-19-17----------------17-19-20----------|
    |-15----------------15-17-18-------------20-18-17-18-20----------18-20-22-|
    |----17-16-14-16-17-------------------------------------------------------|
    |-------------------------------------------------------------------------|
    |-------------------------------------------------------------------------|
    |-------------------------------------------------------------------------|
    
                TP    ~~~
       |--3--|              |--3--|
       S  S  S  Q.    Q.    S  S  S
    |-18-20-22-22----22----------13---|
    |-------------------------15------|
    |----------------------14---------|
    |---------------------------------|
    |---------------------------------|
    |---------------------------------|
    enjoy yourselves!
    Reply With Quote

  20. #110
    Banned iBswole's Avatar
    Join Date: Jun 2004
    Location: Australia
    Posts: 3,734
    Rep Power: 0
    iBswole is just really nice. (+1000) iBswole is just really nice. (+1000) iBswole is just really nice. (+1000) iBswole is just really nice. (+1000) iBswole is just really nice. (+1000) iBswole is just really nice. (+1000) iBswole is just really nice. (+1000) iBswole is just really nice. (+1000) iBswole is just really nice. (+1000) iBswole is just really nice. (+1000) iBswole is just really nice. (+1000)
    iBswole is offline
    another classic lick to practice
    Code:
    Fade To Black Tab by Metallica, www.Ultimate-Guitar.Com
    
    
                 ______ _________ ___ ___ ___   _ _______
          /\    /| ____\\_  ____//| | | | | |  / \\      \
         /  \  / | |_     | |   / | | | | | | / /_\\ 0  __\
        /_   \/  | __|    | |  / 0| | | | | || | _ | __ \
          / /\/| | |___   | | / _ | |_| |_| | \\/ /| | \ \
         / /   | |_____|  |_|/_/ ||___|___|_|  \_/ | |  \ \
        / /__  |/                                   \| __\ \
       /    /                                          \    \
      /    /                                            \    \
      |   /                Fade To Black                 \   |
      |  /                 Ride The Lighting              \  |
      | /                  Elektra Records                 \ |
      |/                      *1984*                        \|
    
    http://www.ultimate-guitar.com/tabs/m/metallica/fade_to_black_tab.htm
       Full 
         )\
    |-22/(22)-19-22-20-19-20-19-17-19-17-15-17-15-14-|
    |------------------------------------------------|
    |------------------------------------------------|
    |------------------------------------------------|
    |------------------------------------------------|
    |------------------------------------------------|
    
    |-15-14-12-14-12-10-12-10-9-10-9-7-|
    |----------------------------------|
    |----------------------------------|
    |----------------------------------|
    |----------------------------------|
    |----------------------------------|
    
    BEGIN FADE
    
    |-9-7--7---7----------------|------------------------|
    |----10--10--8-10-8-7-8-7---|-7----------------------|
    |-------------------------9-|---9-7-9-7---7--7--7--7-|
    |---------------------------|-----------9------------|
    |---------------------------|------------------------|
    |---------------------------|------------------------|
    Code:
    Insert the damnation game - symphony x
    dressed to kill - symphony x
    cemetery gates tabs
    Reply With Quote

  21. #111
    Registered User NatasataN's Avatar
    Join Date: Jun 2006
    Location: Gatineau
    Age: 38
    Posts: 36
    Rep Power: 0
    NatasataN has no reputation, good or bad yet. (0)
    NatasataN is offline
    Wow, I cant belive I havent seen this post before, I started playing guitar when I was 13 (with lessons wich helps ALOT). I'm really happy to find bb people that share the same passion for music!

    Here's some picks that might make some of you jalous! But was one of my most memorable day!

    The dude with the long hair is me and i'll let you guess who the others are
    I'm going to the G3 again on april 4th with Joe Satriani (of course), Paul Gilbert and John Petrucci. And got floor tickets this time, but no backstage pass lol

    You can also see why I started working out, I was about 130lbs on these pics :s
    Attached Images
    Reply With Quote

  22. #112
    Banned iBswole's Avatar
    Join Date: Jun 2004
    Location: Australia
    Posts: 3,734
    Rep Power: 0
    iBswole is just really nice. (+1000) iBswole is just really nice. (+1000) iBswole is just really nice. (+1000) iBswole is just really nice. (+1000) iBswole is just really nice. (+1000) iBswole is just really nice. (+1000) iBswole is just really nice. (+1000) iBswole is just really nice. (+1000) iBswole is just really nice. (+1000) iBswole is just really nice. (+1000) iBswole is just really nice. (+1000)
    iBswole is offline
    shiet damn lucky u are!
    Reply With Quote

  23. #113
    assthetics captainhorseboy's Avatar
    Join Date: Feb 2006
    Location: Ohio, United States
    Age: 33
    Posts: 25,158
    Rep Power: 37646
    captainhorseboy has much to be proud of. One of the best! (+20000) captainhorseboy has much to be proud of. One of the best! (+20000) captainhorseboy has much to be proud of. One of the best! (+20000) captainhorseboy has much to be proud of. One of the best! (+20000) captainhorseboy has much to be proud of. One of the best! (+20000) captainhorseboy has much to be proud of. One of the best! (+20000) captainhorseboy has much to be proud of. One of the best! (+20000) captainhorseboy has much to be proud of. One of the best! (+20000) captainhorseboy has much to be proud of. One of the best! (+20000) captainhorseboy has much to be proud of. One of the best! (+20000) captainhorseboy has much to be proud of. One of the best! (+20000)
    captainhorseboy is offline
    The Damnation Game has a great section for finger independence

    Code:
       1  4  3  2  3  2  1  4  4   1  2  1  3 4  2  4
    ||-------------------10-15/17p14-------------------||
    ||----------------11-------------15----------------||
    ||----------11h12-------------------14-------------||
    ||-------12----------------------------16----------||
    ||-10-13----------------------------------17-15-17-||
    ||-------------------------------------------------||
    Excuse me, your seatbelt seems to be broken. What do you recommend I do?
    Reply With Quote

  24. #114
    Banned iBswole's Avatar
    Join Date: Jun 2004
    Location: Australia
    Posts: 3,734
    Rep Power: 0
    iBswole is just really nice. (+1000) iBswole is just really nice. (+1000) iBswole is just really nice. (+1000) iBswole is just really nice. (+1000) iBswole is just really nice. (+1000) iBswole is just really nice. (+1000) iBswole is just really nice. (+1000) iBswole is just really nice. (+1000) iBswole is just really nice. (+1000) iBswole is just really nice. (+1000) iBswole is just really nice. (+1000)
    iBswole is offline
    Excellent addition - CHB - i've left out a number of symphony x tips - i'll get onto it once i get some research done this afternoon.

    in the meantime - i appoligize for the slow updates and the heavy reliance on classical exercises - i'll bring back some clapton and add some john lee hooker/bb king for some blues tips.

    And i'll post up some step by step examples on how to play some classic GNR solo's

    irons up !
    Reply With Quote

  25. #115
    Banned iBswole's Avatar
    Join Date: Jun 2004
    Location: Australia
    Posts: 3,734
    Rep Power: 0
    iBswole is just really nice. (+1000) iBswole is just really nice. (+1000) iBswole is just really nice. (+1000) iBswole is just really nice. (+1000) iBswole is just really nice. (+1000) iBswole is just really nice. (+1000) iBswole is just really nice. (+1000) iBswole is just really nice. (+1000) iBswole is just really nice. (+1000) iBswole is just really nice. (+1000) iBswole is just really nice. (+1000)
    iBswole is offline
    Originally Posted by Trickae View Post
    another lick - heres a lillte apr practice from the corssroads guitar dual by steve vai - check it out on youtube here : http://www.youtube.com/watch?v=xhNdPTrs6sQ

    Code:
    http://www.ultimate-guitar.com/tabs/s/steve_vai/crossroads_duel_tab.htm
      Q=130
      S S S S S S  S S  S S  S S S S S S   S S S S S S S S  S S S S S S S S
    |----------------8-12-8--------------|------------------------------------|
    |-------------10--------10-----------|---------------9-12p9---------------|
    |---------5-9--------------9-5-------|-----------7-9--------9p7-----------|
    |-------7----------------------7-----|-------6-9----------------9-6-------|
    |-----7------------------------------|---5-7------------------------7-5---|
    |-5h8----------------------------5h8-|-7----------------------------------|
    
    
      S S S  S S  S S S  S S S  S S  S S S
    |--------------------------------------|
    |-----------------8-10-8---------------|
    |---------------9--------9-------------|
    |----------7-11------------11-7--------|
    |-----7-10----------------------10-7---|
    |-5-9--------------------------------9-|
    
    
      S  S S S S  S  S  S  S  S  S  S S S S  S
    |------------------10-13-10------------------|
    |---------------10----------10---------------|
    |----------7-10----------------10-7----------|
    |--------7--------------------------7--------|
    |------8------------------------------8------|
    |-5h10----------------------------------10---|
    
    
      S  S S  S S  S  S  S  S  S  S  S S  S S  S
    |--------------------------------------------|
    |----------------------12--------------------|
    |----------------10-13----13-10--------------|
    |-----------9h12----------------12-9---------|
    |------8h11--------------------------11-8----|
    |-7h10------------------------------------10-|
    
    
                              H.=H
              PM------------|
      S S S S S S S S S S S S S  S S  S
    |-------------------5---8-5-12-8-16---|
    |---------------5-----5---------------|
    |-----------5-----5-------------------|
    |-------7-----7-----------------------|
    |---7-----7---------------------------|
    |-5---8-------------------------------|
    
    
                   Q=150
        H.      Q       S  S  S  S  S  S  S  S  S  S  S  S  S  S  S  S
    |-(16)---------||-----------------------------17-15-13--------------||
    |--------------||o----13-17-13----15-17-15-13----------17-15-13----o||
    |--------------||--14----------16-------------------------------16--||
    |--------------||---------------------------------------------------||
    |--------------||o-------------------------------------------------o||
    |---0----------||---------------------------------------------------||
    
    
       S  S  S  S  S  S  S  S  S  S  S  S  S  S  S  S
    |-------------17-15-13----------19-17-15----------|
    |----14-17-14----------17-14-15----------18-17-15-|
    |-14----------------------------------------------|
    |-------------------------------------------------|
    |-------------------------------------------------|
    |-------------------------------------------------|
    
    
       S  S  S  S  S  S  S  S  S  S  S  S  S  S  S  S
    |----------------------------17-15-13-------------|
    |-------15----18-17-15----------------17-15-13----|
    |----16----16----------16-17-------------------16-|
    |-17----------------------------------------------|
    |-------------------------------------------------|
    |-------------------------------------------------|
    
    
       S  S  S  S  S  S  S  S  S  S  S  S  S  S  S  S
    |-------------------------------------------17----||
    |-------------18-17-15----------18-15----------16s||
    |----14-17-14----------17-13-16-------17-14-------||
    |-15----------------------------------------------||
    |-------------------------------------------------||
    |-------------------------------------------------||
    some michael angelo batio - small lick that sounds awsome off speed kills
    http://www.ultimate-guitar.com/tabs/..._kills_tab.htm
    Code:
     
      Q.    Q.    E  E    +Q.    a  Q   Q   S  S  S
    |-12----------------|----------------------------|
    |-------15----13-13-|-(13)--------------------13-|
    |-------------------|--------14s12--10-----14----|
    |-------------------|-------------------15-------|
    |-------------------|----------------------------|
    |-------------------|----------------------------|
    
                                                              |--3--|
       Q.    Q.    E  a  E    +E   E E  S S  S  S  S  S  a E  S  S  S
    |-12-------------------|--------------------------------------------|
    |-------15----13-------|---------------------------------------13---|
    |----------------14s12-|-(12)-10-9-10-9---------------------14------|
    |----------------------|----------------12-10------------15---------|
    |----------------------|----------------------12-10-10s8------------|
    |----------------------|--------------------------------------------|
    
                                                            ~~~~~~~~~~
                                                                       |--3--|  |------6-------|
       Q.    Q.    E  E    +Q.    a  Q   E  E     +S   S    H     +E   S  S  S  S  S  S  S  S  S
    |-12----------------|--------------------------------|---------------------------------------|
    |-------15----13-13-|-(13)---------------------------|---------------------------------------|
    |-------------------|--------14s12--10h12b14-(12)p10-|-12----(12)----------------------------|
    |-------------------|--------------------------------|---------------------------14-15-17-15-|
    |-------------------|--------------------------------|------------------14-15-17-------------|
    |-------------------|--------------------------------|------------15-17----------------------|
    
       |------6-------|  |------6-------|  |------6-------|  |------6-------|
       S  S  S  S  S  S  S  S  S  S  S  S  S  S  S  S  S  S  S  S  S  S  S  S
    |-------------------------------------------------------------------------|
    |----------------------------------------------------------------15-18-17-|
    |----------------------------14-17-16-14----------------14-16-17----------|
    |-14----------------14-15-17-------------17-15-14-15-17-------------------|
    |----17-15-14-15-17-------------------------------------------------------|
    |-------------------------------------------------------------------------|
    
       |------6-------|  |------6-------|  |------6-------|  |------6-------|
       S  S  S  S  S  S  S  S  S  S  S  S  S  S  S  S  S  S  S  S  S  S  S  S
    |----------------------------15-20-19-17----------------17-19-20----------|
    |-15----------------15-17-18-------------20-18-17-18-20----------18-20-22-|
    |----17-16-14-16-17-------------------------------------------------------|
    |-------------------------------------------------------------------------|
    |-------------------------------------------------------------------------|
    |-------------------------------------------------------------------------|
    
                TP    ~~~
       |--3--|              |--3--|
       S  S  S  Q.    Q.    S  S  S
    |-18-20-22-22----22----------13---|
    |-------------------------15------|
    |----------------------14---------|
    |---------------------------------|
    |---------------------------------|
    |---------------------------------|
    enjoy yourselves!
    small correction for the cross roads - tab
    the intro should actually be played like this (its easier)

    ----------------------8---12
    ------------------10
    ---------------9
    --------7--10
    -----7-
    -5-8-

    etc ...
    Reply With Quote

  26. #116
    Misc. Perv #46 Jem777's Avatar
    Join Date: May 2006
    Location: Melbourne, Victoria, Australia
    Age: 27
    Posts: 8,947
    Rep Power: 3083
    Jem777 is a glorious beacon of knowledge. (+2500) Jem777 is a glorious beacon of knowledge. (+2500) Jem777 is a glorious beacon of knowledge. (+2500) Jem777 is a glorious beacon of knowledge. (+2500) Jem777 is a glorious beacon of knowledge. (+2500) Jem777 is a glorious beacon of knowledge. (+2500) Jem777 is a glorious beacon of knowledge. (+2500) Jem777 is a glorious beacon of knowledge. (+2500) Jem777 is a glorious beacon of knowledge. (+2500) Jem777 is a glorious beacon of knowledge. (+2500) Jem777 is a glorious beacon of knowledge. (+2500)
    Jem777 is offline
    I'm doing Keeley's ultra mod to my DS-1 and turning my MT-2 into a fuzz box, will post pics when I'm done
    .
    Reply With Quote

  27. #117
    assthetics captainhorseboy's Avatar
    Join Date: Feb 2006
    Location: Ohio, United States
    Age: 33
    Posts: 25,158
    Rep Power: 37646
    captainhorseboy has much to be proud of. One of the best! (+20000) captainhorseboy has much to be proud of. One of the best! (+20000) captainhorseboy has much to be proud of. One of the best! (+20000) captainhorseboy has much to be proud of. One of the best! (+20000) captainhorseboy has much to be proud of. One of the best! (+20000) captainhorseboy has much to be proud of. One of the best! (+20000) captainhorseboy has much to be proud of. One of the best! (+20000) captainhorseboy has much to be proud of. One of the best! (+20000) captainhorseboy has much to be proud of. One of the best! (+20000) captainhorseboy has much to be proud of. One of the best! (+20000) captainhorseboy has much to be proud of. One of the best! (+20000)
    captainhorseboy is offline
    lol trickae, michael angelo batio is hilarious
    http://video.google.com/videoplay?do...82425871220946


    the last picking lick is a great thing to learn for using fingers, position changing, and alt-picking
    Code:
         S  S  S  S  S  S  S  S  S  S  S  S  S  S  S  S
    ||--15-12----------12-15-12----------12-15-12-------|
    ||o-------13-12-13----------13-12-13----------13-12-|
    ||--------------------------------------------------|
    ||--------------------------------------------------|
    ||o-------------------------------------------------|
    ||--------------------------------------------------|
    
       S  S  S  S  S  S  S  S  S  S  S  S  S  S  S  S
    |-18-15----------15-18-15----------15-18-15-------|
    |-------16-15-16----------16-15-16----------16-15-|
    |-------------------------------------------------|
    |-------------------------------------------------|
    |-------------------------------------------------|
    |-------------------------------------------------|
    
                                                       1.
       S  S  S  S  S  S  S  S  S  S  S  S  S  S  S  S    S  S  S  S  S  S  S  S  S  S  S  S  S  S  S  S
    |-17-14----------14-17-14----------14-17-14-------|-13-10----------10-13-10----------10-13-10--------||
    |-------15-14-15----------15-14-15----------15-14-|-------11-10-11----------11-10-11----------11-10-o||
    |-------------------------------------------------|--------------------------------------------------||
    |-------------------------------------------------|--------------------------------------------------||
    |-------------------------------------------------|-------------------------------------------------o||
    |-------------------------------------------------|--------------------------------------------------||
    
     2.
       S  S  S  S  S  S  S  S  S  S  S  S  S  S  S  S
    |-13-10-------13-10-------13-10-------13-10----------|
    |-------11-10-------11-10-------11-10-------11-10----|
    |----------------------------------------------------|
    |----------------------------------------------------|
    |----------------------------------------------------|
    |----------------------------------------------------|
    
         S  S  S  S  S S  S S  S S  S  S  S  S  S  S
    ||--15-12-------------------------------12-15-12-|
    ||o-------13-12-------------------12-13----------|
    ||--------------12-9---------9-12----------------|
    ||-------------------10-9-10---------------------|
    ||o----------------------------------------------|
    ||-----------------------------------------------|
    
       S  S  S  S  S  S  S  S  S  S  S  S  S  S  S  S
    |-18-15----------------------------------15-18-15-|
    |-------16-15----------------------15-16----------|
    |-------------15-12----------12-15----------------|
    |-------------------13-12-13----------------------|
    |-------------------------------------------------|
    |-------------------------------------------------|
    
      1.
       S  S  S  S  S  S  S  S  S  S  S  S  S  S  S  S    S  S  S  S  S S S S S S  S  S  S  S  S  S
    |-17-14----------------------------------14-17-14-|-13-10-----------------------------10-13-10--||
    |-------15-14----------------------14-15----------|-------11-10-----------------10-11----------o||
    |-------------14-11----------11-14----------------|-------------10-7-------7-10-----------------||
    |-------------------12-11-12----------------------|------------------8-7-8----------------------||
    |-------------------------------------------------|--------------------------------------------o||
    |-------------------------------------------------|---------------------------------------------||
    
     2.
                                                                                     ~~
       S  S  S  S  S  S  S  S  S S  S S  S S  S  S    S  S  S  S  S  S  S  S  Q   E  E
    |-17-14----------------------------------------|----------------14-17-14-17--10-13-|
    |-------15-14----------------------------------|----------14-15--------------10-12-|
    |-------------14-11----------------------------|----11-14--------------------------|
    |-------------------12-11-------------------11-|-12--------------------------------|
    |-------------------------12-9---------9-12----|-----------------------------------|
    |------------------------------10-9-10---------|-----------------------------------|
    Excuse me, your seatbelt seems to be broken. What do you recommend I do?
    Reply With Quote

  28. #118
    Banned iBswole's Avatar
    Join Date: Jun 2004
    Location: Australia
    Posts: 3,734
    Rep Power: 0
    iBswole is just really nice. (+1000) iBswole is just really nice. (+1000) iBswole is just really nice. (+1000) iBswole is just really nice. (+1000) iBswole is just really nice. (+1000) iBswole is just really nice. (+1000) iBswole is just really nice. (+1000) iBswole is just really nice. (+1000) iBswole is just really nice. (+1000) iBswole is just really nice. (+1000) iBswole is just really nice. (+1000)
    iBswole is offline
    ahahah is that you!!!! ??!??!?! Lol ahahaha that was hilarious when you stood up and did the overhand stuff! lmao!
    Reply With Quote

  29. #119
    assthetics captainhorseboy's Avatar
    Join Date: Feb 2006
    Location: Ohio, United States
    Age: 33
    Posts: 25,158
    Rep Power: 37646
    captainhorseboy has much to be proud of. One of the best! (+20000) captainhorseboy has much to be proud of. One of the best! (+20000) captainhorseboy has much to be proud of. One of the best! (+20000) captainhorseboy has much to be proud of. One of the best! (+20000) captainhorseboy has much to be proud of. One of the best! (+20000) captainhorseboy has much to be proud of. One of the best! (+20000) captainhorseboy has much to be proud of. One of the best! (+20000) captainhorseboy has much to be proud of. One of the best! (+20000) captainhorseboy has much to be proud of. One of the best! (+20000) captainhorseboy has much to be proud of. One of the best! (+20000) captainhorseboy has much to be proud of. One of the best! (+20000)
    captainhorseboy is offline
    Originally Posted by iBswole View Post
    ahahah is that you!!!! ??!??!?! Lol ahahaha that was hilarious when you stood up and did the overhand stuff! lmao!

    lol yeah its me. i more wanted to make the video to make fun of the guy than actually play it but i think i did a good enough job, also it was filmed in widescreen, im not really that skinny (hey it s a bodybuilding site right?)
    Excuse me, your seatbelt seems to be broken. What do you recommend I do?
    Reply With Quote

  30. #120
    I sweat BCAAs and sea H2O JoeyTS's Avatar
    Join Date: Jan 2006
    Posts: 3,017
    Rep Power: 12629
    JoeyTS is a splendid one to behold. (+10000) JoeyTS is a splendid one to behold. (+10000) JoeyTS is a splendid one to behold. (+10000) JoeyTS is a splendid one to behold. (+10000) JoeyTS is a splendid one to behold. (+10000) JoeyTS is a splendid one to behold. (+10000) JoeyTS is a splendid one to behold. (+10000) JoeyTS is a splendid one to behold. (+10000) JoeyTS is a splendid one to behold. (+10000) JoeyTS is a splendid one to behold. (+10000) JoeyTS is a splendid one to behold. (+10000)
    JoeyTS is offline
    Originally Posted by JoeyTS
    Hey great guitar thread

    I wonder if maybe you could help me. I am looking for a tab for the theme song to the Super Nintendo Game "Top Gear." I can not find it anywhere. There are some decent performances of it on youtube. Also, there is a metal band in Brazil named Top Racer (I think, not sure) that covered it and other theme songs. But that is the all I could find.

    If you have any info or can help me find the "Top Gear" super nintendo theme tabbed out for guitar I will greatly appreciate it. let me know either way.

    thanks bud,
    Joey
    Originally Posted by Trickae
    Yeah dude,
    I can look into - never heard tho - lemme get home and i'll see what i can find on youtube - and the worse case scenario if i can't find anything - would be to tab it out myself ..lol

    till next time,

    trickae
    I found some cool viedeo game guitar tab sites. but none had the song I wanted. I learned mario brother's theme tho lol.

    anyway, the "top gear" is great for some shredding. I can do the sweeps but I am no good at trying to figure out the other parts My ear just can not sort it out when its something this layered and fast. Here are a few decent performances of parts of the "top gear" song on youtube:

    just soloing using parts from "top gear." He has the melody for the lead line perfect and hit most of the sweeping arps sound about right. Its not the actual song arrangement but still a very good shred for fun
    http://www.youtube.com/watch?v=fG933984PXM

    Here is a fun one where the guy recorded each guitar part and overdubbed himself. Many parts of this are very close to the real song:
    http://www.youtube.com/watch?v=ej1QiDoV2-g

    If you hate shred, or don't like this song, don't waorry about tabbing it. I was just seeing if maybe you had any ideas where to even look for a tab? I understand many don't like this kind of music...but I hope you enjoy the vids, I love the stuff

    Originally Posted by Trickae
    Hey man,
    yeah its me trickae - my friends from college found my profile here on bb misc and now I'm the but of all jokes - wanting to piitb of manish looking chicks (maie eason) - posting babe threads and talking trash over the internet - I posted alot of girl trouble crap ages ago in 05/06 in the relationship help forum - and people dug that up as well. I changed my username and profile pic(sort of) to kinda stop em from diggin deeper.

    Anyways back to ure question - the first vid on youtube seems ok - kinda sloppy but tabbable. he pulls some over hand mihchael angelo tapping runs - its actually not that difficult to learn - frankly stretches are made easier that way. I can tab out a couple of sweeps, the over hand tapping, and the last run - which seems like its in a scale box shape. I can have a crack at it - see how i go - have you tried asking for the tab on those guys comments pages?

    The second video -
    ahh you see he;s essentially playing the same thing as the first youtube video except instead of tapping it out he's playing the lower notes on the high E string on the higher strings beyond the 12th fret - Frankly its easier to get speed from tapping, Nice overdubs tho - i'll see what i can do -

    post this msg into the guitar learning megathread and i'll put up a rough tab - have some other ppl look at it and we should get a solid tab down pretty soon.

    good luck and thanks for the vids.

    Trickae
    I could not understand where he had told me to look for tabs. I need somone who speaks Portuguese to find it
    Upper/Lower program write-up:
    http://forum.bodybuilding.com/showthread.php?t=160554001&p=1215242691&viewfull=1#post1215242691
    Reply With Quote

Posting Permissions

  • You may not post new threads
  • You may not post replies
  • You may not post attachments
  • You may not edit your posts