Need Help? Customer Support 1-866-236-8417
Reply
Page 3 of 220 FirstFirst 1 2 3 4 5 13 53 103 ... LastLast
Results 61 to 90 of 6576
  1. #61
    I sweat BCAAs and sea H2O JoeyTS's Avatar
    Join Date: Jan 2006
    Posts: 3,016
    Rep Power: 12636
    JoeyTS is a splendid one to behold. (+10000) JoeyTS is a splendid one to behold. (+10000) JoeyTS is a splendid one to behold. (+10000) JoeyTS is a splendid one to behold. (+10000) JoeyTS is a splendid one to behold. (+10000) JoeyTS is a splendid one to behold. (+10000) JoeyTS is a splendid one to behold. (+10000) JoeyTS is a splendid one to behold. (+10000) JoeyTS is a splendid one to behold. (+10000) JoeyTS is a splendid one to behold. (+10000) JoeyTS is a splendid one to behold. (+10000)
    JoeyTS is offline

    Chops From Hell

    ^^^Link with greeat shred exercises and advanced techniques (many with tab and audio).
    Upper/Lower program write-up:
    http://forum.bodybuilding.com/showthread.php?t=160554001&p=1215242691&viewfull=1#post1215242691
    Reply With Quote

  2. #62
    \M/etal Mod Mindripper's Avatar
    Join Date: May 2006
    Location: Vermont, United States
    Age: 44
    Posts: 14,495
    Rep Power: 24495
    Mindripper has much to be proud of. One of the best! (+20000) Mindripper has much to be proud of. One of the best! (+20000) Mindripper has much to be proud of. One of the best! (+20000) Mindripper has much to be proud of. One of the best! (+20000) Mindripper has much to be proud of. One of the best! (+20000) Mindripper has much to be proud of. One of the best! (+20000) Mindripper has much to be proud of. One of the best! (+20000) Mindripper has much to be proud of. One of the best! (+20000) Mindripper has much to be proud of. One of the best! (+20000) Mindripper has much to be proud of. One of the best! (+20000) Mindripper has much to be proud of. One of the best! (+20000)
    Mindripper is offline
    Originally Posted by jkeithc82 View Post
    Very good adivce, and I'd also recommend purchasing and using a metronome to get timing down. Helps a lot.

    Agreed. Metronome helped me alot; for years I played and played but was missing some of finer points of making music. Timing and feel is HUGE!

    On another note:

    http://www.vai.com/littleblackdots.html
    Semper Fi

    Hope is a good thing, maybe the best of things, and no good thing ever dies...
    Reply With Quote

  3. #63
    assthetics captainhorseboy's Avatar
    Join Date: Feb 2006
    Location: Ohio, United States
    Age: 33
    Posts: 25,145
    Rep Power: 37653
    captainhorseboy has much to be proud of. One of the best! (+20000) captainhorseboy has much to be proud of. One of the best! (+20000) captainhorseboy has much to be proud of. One of the best! (+20000) captainhorseboy has much to be proud of. One of the best! (+20000) captainhorseboy has much to be proud of. One of the best! (+20000) captainhorseboy has much to be proud of. One of the best! (+20000) captainhorseboy has much to be proud of. One of the best! (+20000) captainhorseboy has much to be proud of. One of the best! (+20000) captainhorseboy has much to be proud of. One of the best! (+20000) captainhorseboy has much to be proud of. One of the best! (+20000) captainhorseboy has much to be proud of. One of the best! (+20000)
    captainhorseboy is offline
    nice sweep segment by cacophony from the song black cat

    Code:
    E||------------------|--------------------------|
    B||------------------|--------------------------|
    G||--3----4----7--6--|--3--3--3--3--3--3--3--3--|
    D||--3----4----7--6--|--3--3--3--3--3--3--3--3--|
    A||--1----2----5--4--|--1--1--1--1--1--1--1--1--|
    E||------------------|--------------------------|
    
    
                                                                  
    ------------2-7h2-----------------------10-14h10-------------|
    ----------3-------3------------------12----------12----------|
    --------4-----------4-------------11----------------11-------|
    ------4---------------4--------12----------------------12----|
    --2h5-------------------5-9h14----------------------------14-|
    -------------------------------------------------------------|
    
    
                                                                              
    ----------------10-14h10----------------------------14-19h14-------------|
    -------------12----------12----------------------15----------15----------|
    ----------11----------------11----------------16----------------16-------|
    -------12----------------------12h11-------16----------------------16----|
    --9h14-------------------------------14h17----------------------------17-|
    -------------------------------------------------------------------------|
    
    
                                                                         
    ----------------8-13h8---------------------------8-13h8-------------|
    -------------10--------10---------------------10--------10----------|
    ----------10--------------10---------------10--------------10-------|
    -------10--------------------10---------10--------------------10----|
    --8h12--------------------------12-8h12--------------------------12-|
    --------------------------------------------------------------------|
    
    
                                                                            
    -----------------12-17h12----------------------------12----------------|
    --------------14----------14----------------------14----14-------------|
    -----------14----------------14----------------14----------14----------|
    --------14----------------------14----------14----------------14-------|
    --12h16----------------------------16-12-16----------------------16-12-|
    -----------------------------------------------------------------------|
    
    
                                                         
    ------------5-10h5-------------------5-10h5---------|
    ----------7--------7---------------7--------7-------|
    --------7------------7-----------7------------7-----|
    ------7----------------7-------7----------------7---|
    --5h9--------------------9-5h9--------------------9-|
    ----------------------------------------------------|
    
    
                                                                 
    ------------5-10h5-----------------------9-14h9-------------|
    ----------7--------7------------------11--------11----------|
    --------7------------7-------------11--------------11-------|
    ------7----------------7--------11--------------------11----|
    --5h9--------------------9-9h13--------------------------13-|
    ------------------------------------------------------------|
    
    
                                                                               
    -----------------14-19h14----------------------------14-19h14-------------|
    --------------15----------15----------------------15----------15----------|
    -----------16----------------16----------------16----------------16-------|
    --------16----------------------16----------16----------------------16----|
    --14h17----------------------------17-14h17----------------------------17-|
    --------------------------------------------------------------------------|
    
    
                                                                                  
    -----------------14-19h14----------------------------12-17h14----------------|
    --------------15----------15----------------------14----------15-------------|
    -----------16----------------16----------------14----------------14----------|
    --------16----------------------16----------14----------------------16-------|
    --14h17----------------------------17-12h16----------------------------17h12-|
    -----------------------------------------------------------------------------|
    
    
                                                                      
    -------------7-12h7-------------------------16/19h16-------------|
    -----------9--------9--------------------17----------17----------|
    ---------9------------9---------------16----------------16-------|
    -------9----------------9----------18----------------------18----|
    --7h11--------------------11/14h19----------------------------19-|
    -----------------------------------------------------------------|
    
    
                                                                               
    -----------------16-19h16----------16-18h13-------------------------------|
    --------------17----------17----17----------15----------------------------|
    -----------16----------------16----------------15----------------15-------|
    --------18----------------------------------------15----------15----15----|
    --14h19----------------------------------------------17-13h17----------17-|
    --------------------------------------------------------------------------|
    
    
                                                                      
    -------------7-12h7-------------------------16/19h16-------------|
    -----------9--------9--------------------17----------17----------|
    ---------9------------9---------------16----------------16-------|
    -------9----------------9----------18----------------------18----|
    --7h11--------------------11/14-19----------------------------19-|
    -----------------------------------------------------------------|
    
    
                                                                               
    -----------------16-19h16----------16-18h13-------------------------------|
    --------------17----------17----17----------15----------------------------|
    -----------16----------------16----------------15----------------15-------|
    --------18----------------------------------------15----------15----15----|
    --14h19----------------------------------------------17-13h17----------17-|
    --------------------------------------------------------------------------|
    
    
                                                                      
    -------------7-12h7-------------------------16/19h16-------------|
    -----------9--------9--------------------17----------17----------|
    ---------9------------9---------------16----------------16-------|
    -------9----------------9----------18----------------------18----|
    --7h11--------------------11/14-19----------------------------19-|
    -----------------------------------------------------------------|
    
    
                                                                               
    -----------------16-19h16----------16-18h13-------------------------------|
    --------------17----------17----17----------15----------------------------|
    -----------16----------------16----------------15----------------15-------|
    --------18----------------------------------------15----------15----15----|
    --14h19----------------------------------------------17-13h17----------17-|
    --------------------------------------------------------------------------|
    
    
                                                                      
    -------------7-12h7-------------------------16/19h16-------------|
    -----------9--------9--------------------17----------17----------|
    ---------9------------9---------------16----------------16-------|
    -------9----------------9----------18----------------------18----|
    --7h11--------------------11/14-19----------------------------19-|
    -----------------------------------------------------------------|
    
    
                                                                               
    -----------------16-19h16----------16-18h13-------------------------------|
    --------------17----------17----17----------15----------------------------|
    -----------16----------------16----------------15----------------15-------|
    --------18----------------------------------------15----------15----15----|
    --14h19----------------------------------------------17-13h17----------17-|
    --------------------------------------------------------------------------|
    
    
                                                                                    
    -----------------13-17/22h17----------------------------18h13-18h13-------------
    --------------15-------------18----------------------18-------------15----------
    -----------15-------------------19----------------19-------------------15-------
    --------15-------------------------19----------20-------------------------15----
    --13h17-------------------------------20-17-20-------------------------------17-
    --------------------------------------------------------------------------------
    
    
                                            
    --19--18--17-18-17-16-----------------||
    ----------------------20--19--18--19--||
    --------------------------------------||
    --------------------------------------||
    --------------------------------------||
    --------------------------------------||

    and me trying it out
    http://video.google.com/videoplay?do...49289339306609
    Excuse me, your seatbelt seems to be broken. What do you recommend I do?
    Reply With Quote

  4. #64
    Registered User pineapple_guy's Avatar
    Join Date: Jun 2006
    Location: Melbourne, Victoria, Australia
    Age: 28
    Posts: 1,817
    Rep Power: 0
    pineapple_guy is not very helpful. (-500) pineapple_guy is not very helpful. (-500) pineapple_guy is not very helpful. (-500) pineapple_guy is not very helpful. (-500) pineapple_guy is not very helpful. (-500) pineapple_guy is not very helpful. (-500) pineapple_guy is not very helpful. (-500) pineapple_guy is not very helpful. (-500) pineapple_guy is not very helpful. (-500) pineapple_guy is not very helpful. (-500) pineapple_guy is not very helpful. (-500)
    pineapple_guy is offline
    Originally Posted by dts1789 View Post
    Because links to sites where you can illegally download content is not allowed. DUH
    If it is illegal, then how come these sites still exist?

    And the torrents in question concern sheet music, many of which you can't buy in stores.
    Reply With Quote

  5. #65
    is back from hiatus! ElSpaceBandito's Avatar
    Join Date: Jan 2006
    Location: Melbourne, Australia
    Posts: 3,451
    Rep Power: 3777
    ElSpaceBandito is a glorious beacon of knowledge. (+2500) ElSpaceBandito is a glorious beacon of knowledge. (+2500) ElSpaceBandito is a glorious beacon of knowledge. (+2500) ElSpaceBandito is a glorious beacon of knowledge. (+2500) ElSpaceBandito is a glorious beacon of knowledge. (+2500) ElSpaceBandito is a glorious beacon of knowledge. (+2500) ElSpaceBandito is a glorious beacon of knowledge. (+2500) ElSpaceBandito is a glorious beacon of knowledge. (+2500) ElSpaceBandito is a glorious beacon of knowledge. (+2500) ElSpaceBandito is a glorious beacon of knowledge. (+2500) ElSpaceBandito is a glorious beacon of knowledge. (+2500)
    ElSpaceBandito is offline
    Originally Posted by jkeithc82 View Post
    I think these shredders need some sweep picking lessons, followed by legato and tapping.
    why not all of them in one, legato sweeps with tapping
    Next Oleksandr Kutcher In The Making!
    Reply With Quote

  6. #66
    Registered User dts1789's Avatar
    Join Date: Aug 2005
    Posts: 7,860
    Rep Power: 5001
    dts1789 is a glorious beacon of knowledge. (+2500) dts1789 is a glorious beacon of knowledge. (+2500) dts1789 is a glorious beacon of knowledge. (+2500) dts1789 is a glorious beacon of knowledge. (+2500) dts1789 is a glorious beacon of knowledge. (+2500) dts1789 is a glorious beacon of knowledge. (+2500) dts1789 is a glorious beacon of knowledge. (+2500) dts1789 is a glorious beacon of knowledge. (+2500) dts1789 is a glorious beacon of knowledge. (+2500) dts1789 is a glorious beacon of knowledge. (+2500) dts1789 is a glorious beacon of knowledge. (+2500)
    dts1789 is offline
    Originally Posted by pineapple_guy View Post
    If it is illegal, then how come these sites still exist?

    And the torrents in question concern sheet music, many of which you can't buy in stores.
    Your logic is real good isn't it. Child porn is illegal but that wouldn't stop sites from being around now would it?

    Try learning the law
    Horror movie thread
    http://forum.bodybuilding.com/showthread.php?t=1776961
    Reply With Quote

  7. #67
    Registered User pineapple_guy's Avatar
    Join Date: Jun 2006
    Location: Melbourne, Victoria, Australia
    Age: 28
    Posts: 1,817
    Rep Power: 0
    pineapple_guy is not very helpful. (-500) pineapple_guy is not very helpful. (-500) pineapple_guy is not very helpful. (-500) pineapple_guy is not very helpful. (-500) pineapple_guy is not very helpful. (-500) pineapple_guy is not very helpful. (-500) pineapple_guy is not very helpful. (-500) pineapple_guy is not very helpful. (-500) pineapple_guy is not very helpful. (-500) pineapple_guy is not very helpful. (-500) pineapple_guy is not very helpful. (-500)
    pineapple_guy is offline
    Originally Posted by dts1789 View Post
    Your logic is real good isn't it. Child porn is illegal but that wouldn't stop sites from being around now would it?

    Try learning the law
    I just did.

    Downloading copyrighted content from torrents is illegal.

    Downloading content that doesn't infringe on copyrights from torrents isn't illegal.

    The torrents I linked are just sheet music and don't infringe on any copyrights.

    kthxbye.
    Reply With Quote

  8. #68
    Registered User dts1789's Avatar
    Join Date: Aug 2005
    Posts: 7,860
    Rep Power: 5001
    dts1789 is a glorious beacon of knowledge. (+2500) dts1789 is a glorious beacon of knowledge. (+2500) dts1789 is a glorious beacon of knowledge. (+2500) dts1789 is a glorious beacon of knowledge. (+2500) dts1789 is a glorious beacon of knowledge. (+2500) dts1789 is a glorious beacon of knowledge. (+2500) dts1789 is a glorious beacon of knowledge. (+2500) dts1789 is a glorious beacon of knowledge. (+2500) dts1789 is a glorious beacon of knowledge. (+2500) dts1789 is a glorious beacon of knowledge. (+2500) dts1789 is a glorious beacon of knowledge. (+2500)
    dts1789 is offline
    Originally Posted by pineapple_guy View Post
    I just did.

    Downloading copyrighted content from torrents is illegal.

    Downloading content that doesn't infringe on copyrights from torrents isn't illegal.

    The torrents I linked are just sheet music and don't infringe on any copyrights.

    kthxbye.
    Good work. Also remember that linking to a site that contains illegal content is not allowed, even if you're only linking to it to show something that is legal.
    Horror movie thread
    http://forum.bodybuilding.com/showthread.php?t=1776961
    Reply With Quote

  9. #69
    Registered User pineapple_guy's Avatar
    Join Date: Jun 2006
    Location: Melbourne, Victoria, Australia
    Age: 28
    Posts: 1,817
    Rep Power: 0
    pineapple_guy is not very helpful. (-500) pineapple_guy is not very helpful. (-500) pineapple_guy is not very helpful. (-500) pineapple_guy is not very helpful. (-500) pineapple_guy is not very helpful. (-500) pineapple_guy is not very helpful. (-500) pineapple_guy is not very helpful. (-500) pineapple_guy is not very helpful. (-500) pineapple_guy is not very helpful. (-500) pineapple_guy is not very helpful. (-500) pineapple_guy is not very helpful. (-500)
    pineapple_guy is offline
    Originally Posted by dts1789 View Post
    Good work. Also remember that linking to a site that contains illegal content is not allowed, even if you're only linking to it to show something that is legal.
    This site has a steroids section.

    Steroids are illegal.

    Ooh that's a deep burn.
    Reply With Quote

  10. #70
    Registered User dts1789's Avatar
    Join Date: Aug 2005
    Posts: 7,860
    Rep Power: 5001
    dts1789 is a glorious beacon of knowledge. (+2500) dts1789 is a glorious beacon of knowledge. (+2500) dts1789 is a glorious beacon of knowledge. (+2500) dts1789 is a glorious beacon of knowledge. (+2500) dts1789 is a glorious beacon of knowledge. (+2500) dts1789 is a glorious beacon of knowledge. (+2500) dts1789 is a glorious beacon of knowledge. (+2500) dts1789 is a glorious beacon of knowledge. (+2500) dts1789 is a glorious beacon of knowledge. (+2500) dts1789 is a glorious beacon of knowledge. (+2500) dts1789 is a glorious beacon of knowledge. (+2500)
    dts1789 is offline
    Originally Posted by pineapple_guy View Post
    This site has a steroids section.

    Steroids are illegal.

    Ooh that's a deep burn.
    Idiot...
    Horror movie thread
    http://forum.bodybuilding.com/showthread.php?t=1776961
    Reply With Quote

  11. #71
    Registered User angelfire2005's Avatar
    Join Date: Oct 2005
    Location: Georgia, United States
    Posts: 6,815
    Rep Power: 3010
    angelfire2005 is a glorious beacon of knowledge. (+2500) angelfire2005 is a glorious beacon of knowledge. (+2500) angelfire2005 is a glorious beacon of knowledge. (+2500) angelfire2005 is a glorious beacon of knowledge. (+2500) angelfire2005 is a glorious beacon of knowledge. (+2500) angelfire2005 is a glorious beacon of knowledge. (+2500) angelfire2005 is a glorious beacon of knowledge. (+2500) angelfire2005 is a glorious beacon of knowledge. (+2500) angelfire2005 is a glorious beacon of knowledge. (+2500) angelfire2005 is a glorious beacon of knowledge. (+2500) angelfire2005 is a glorious beacon of knowledge. (+2500)
    angelfire2005 is offline
    Originally Posted by captainhorseboy View Post
    *picks jaw up from floor*
    hiya
    PSN: med171
    Reply With Quote

  12. #72
    Banned Ibanez's Avatar
    Join Date: Nov 2001
    Location: Pennsylvania
    Posts: 2,515
    Rep Power: 0
    Ibanez will become famous soon enough. (+50) Ibanez will become famous soon enough. (+50) Ibanez will become famous soon enough. (+50) Ibanez will become famous soon enough. (+50) Ibanez will become famous soon enough. (+50) Ibanez will become famous soon enough. (+50) Ibanez will become famous soon enough. (+50) Ibanez will become famous soon enough. (+50) Ibanez will become famous soon enough. (+50) Ibanez will become famous soon enough. (+50) Ibanez will become famous soon enough. (+50)
    Ibanez is offline
    I forget to mention each mode has a corresponding chord also...

    (Someone correct if I'm wrong) Example in Jazz:
    Ionian - maj7
    Dorian - min7
    Phrygian - min7
    Lydian - maj7
    Mixolydian - dim7
    Aeolian - min7
    Locrian - flat5,7 <---can't remember this one...

    I know there are certain notes that are termed "Avoid Notes" in certain scales but they are termed that because of the dissonace that is created. For instance a play a Cmaj on the piano and hold down the F key, doesn't sound exactly right, right? That doesn't mean they should be avoided though, used in the right context or in passing they sound fine.
    Reply With Quote

  13. #73
    Banned iBswole's Avatar
    Join Date: Jun 2004
    Location: Australia
    Posts: 3,734
    Rep Power: 0
    iBswole is just really nice. (+1000) iBswole is just really nice. (+1000) iBswole is just really nice. (+1000) iBswole is just really nice. (+1000) iBswole is just really nice. (+1000) iBswole is just really nice. (+1000) iBswole is just really nice. (+1000) iBswole is just really nice. (+1000) iBswole is just really nice. (+1000) iBswole is just really nice. (+1000) iBswole is just really nice. (+1000)
    iBswole is offline
    alright i'm back from the GC - any requests for lessons?

    Arps? Legato? tapping?

    btw does anyone still have a copy of all the tapping lessons by schmange that was hosted at guitartricks.com ages ago? Apparently they're making us pay for an account there to get access again. wtf!?!

    cuz its gonna be a pain to tab out so many lessons ...

    I'll start by quoting the crazy train tab next time - we'll start with that and one and see how we go from there.


    ----

    Also some personal requests - damn mindripper - how did you work your way up to such smooth arps? I'm still stuck on learning symphony x's connected sweeps.
    Reply With Quote

  14. #74
    Registered User P. Ramlee's Avatar
    Join Date: Oct 2004
    Posts: 40
    Rep Power: 0
    P. Ramlee has no reputation, good or bad yet. (0) P. Ramlee has no reputation, good or bad yet. (0) P. Ramlee has no reputation, good or bad yet. (0) P. Ramlee has no reputation, good or bad yet. (0) P. Ramlee has no reputation, good or bad yet. (0) P. Ramlee has no reputation, good or bad yet. (0) P. Ramlee has no reputation, good or bad yet. (0) P. Ramlee has no reputation, good or bad yet. (0) P. Ramlee has no reputation, good or bad yet. (0) P. Ramlee has no reputation, good or bad yet. (0) P. Ramlee has no reputation, good or bad yet. (0)
    P. Ramlee is offline

    Yeah!

    Subscribed!!!
    Procrastination is like masturbation .. It's only good until you realize you're ****ing yourself.
    Reply With Quote

  15. #75
    R[̲̅ə̲̅٨̲̅٥̲̅٦̲̅]ution snwdevl10's Avatar
    Join Date: Feb 2006
    Posts: 2,345
    Rep Power: 3466
    snwdevl10 is a glorious beacon of knowledge. (+2500) snwdevl10 is a glorious beacon of knowledge. (+2500) snwdevl10 is a glorious beacon of knowledge. (+2500) snwdevl10 is a glorious beacon of knowledge. (+2500) snwdevl10 is a glorious beacon of knowledge. (+2500) snwdevl10 is a glorious beacon of knowledge. (+2500) snwdevl10 is a glorious beacon of knowledge. (+2500) snwdevl10 is a glorious beacon of knowledge. (+2500) snwdevl10 is a glorious beacon of knowledge. (+2500) snwdevl10 is a glorious beacon of knowledge. (+2500) snwdevl10 is a glorious beacon of knowledge. (+2500)
    snwdevl10 is offline
    Originally Posted by Trickae View Post
    alright i'm back from the GC - any requests for lessons?

    Arps? Legato? tapping?

    btw does anyone still have a copy of all the tapping lessons by schmange that was hosted at guitartricks.com ages ago? Apparently they're making us pay for an account there to get access again. wtf!?!

    cuz its gonna be a pain to tab out so many lessons ...

    I'll start by quoting the crazy train tab next time - we'll start with that and one and see how we go from there.


    ----

    Also some personal requests - damn mindripper - how did you work your way up to such smooth arps? I'm still stuck on learning symphony x's connected sweeps.
    Arp lessons please. Or sweeping in general. I feel like such a noob in this thread .

    I have never really figured out if my right (pick) hand is supposed to be floating or not either. I haven't been playing too long but I don't want to develop to many bad habits.
    Reply With Quote

  16. #76
    Registered User pineapple_guy's Avatar
    Join Date: Jun 2006
    Location: Melbourne, Victoria, Australia
    Age: 28
    Posts: 1,817
    Rep Power: 0
    pineapple_guy is not very helpful. (-500) pineapple_guy is not very helpful. (-500) pineapple_guy is not very helpful. (-500) pineapple_guy is not very helpful. (-500) pineapple_guy is not very helpful. (-500) pineapple_guy is not very helpful. (-500) pineapple_guy is not very helpful. (-500) pineapple_guy is not very helpful. (-500) pineapple_guy is not very helpful. (-500) pineapple_guy is not very helpful. (-500) pineapple_guy is not very helpful. (-500)
    pineapple_guy is offline
    Originally Posted by Ibanez View Post
    I forget to mention each mode has a corresponding chord also...

    (Someone correct if I'm wrong) Example in Jazz:
    Ionian - maj7
    Dorian - min7
    Phrygian - min7
    Lydian - maj7
    Mixolydian - dim7
    Aeolian - min7
    Locrian - flat5,7 <---can't remember this one...

    I know there are certain notes that are termed "Avoid Notes" in certain scales but they are termed that because of the dissonace that is created. For instance a play a Cmaj on the piano and hold down the F key, doesn't sound exactly right, right? That doesn't mean they should be avoided though, used in the right context or in passing they sound fine.

    Are you trying to talk about chordal scales? If I were to play a chordal scale in say... D major it would look like this

    D major 7
    E minor 7
    F# minor 7
    G major 7
    A dominant 7
    B minor 7
    C# dominant 7 flat 5 (Half diminished)

    Or in C major it would look like this

    C major 7
    D minor 7
    E minor 7
    F major 7
    G Dominant 7
    A minor 7
    B dominant 7 flat 5
    Reply With Quote

  17. #77
    assthetics captainhorseboy's Avatar
    Join Date: Feb 2006
    Location: Ohio, United States
    Age: 33
    Posts: 25,145
    Rep Power: 37653
    captainhorseboy has much to be proud of. One of the best! (+20000) captainhorseboy has much to be proud of. One of the best! (+20000) captainhorseboy has much to be proud of. One of the best! (+20000) captainhorseboy has much to be proud of. One of the best! (+20000) captainhorseboy has much to be proud of. One of the best! (+20000) captainhorseboy has much to be proud of. One of the best! (+20000) captainhorseboy has much to be proud of. One of the best! (+20000) captainhorseboy has much to be proud of. One of the best! (+20000) captainhorseboy has much to be proud of. One of the best! (+20000) captainhorseboy has much to be proud of. One of the best! (+20000) captainhorseboy has much to be proud of. One of the best! (+20000)
    captainhorseboy is offline
    Nevermore's This Godless Endeavor has a good sweeping pattern for practicing slowly

    Code:
    
    
    ||--14p10--------------10h14p10-----------------------------------10h14p10--------------10h=|
    ||----------12----12--------------12-------------------------12--------------12----12-------|
    ||o------------11--------------------11-------------------11--------------------11----------|
    ||--------------------------------------12-------------12-----------------------------------|
    ||o------------------------------------------14p9h14----------------------------------------|
    ||------------------------------------------------------------------------------------------|
    ||------------------------------------------------------------------------------------------|
    
    |-13p10--------------10h14p10--------------10h15p10----------------10h14p10--------------10h==|
    |---------12----12--------------12----12---------------12----12---------------12----12--------|
    |------------11--------------------11---------------------11---------------------11-----------|
    |---------------------------------------------------------------------------------------------|
    |---------------------------------------------------------------------------------------------|
    |---------------------------------------------------------------------------------------------|
    |---------------------------------------------------------------------------------------------|
    
    |-14p9--------------9h14p9-----------------------------------9h14p9--------------9h==|
    |--------11----11------------11-------------------------11------------11----11-------|
    |-----------11------------------11-------------------11------------------11----------|
    |----------------------------------11-------------11---------------------------------|
    |---------------------------------------13p9h13--------------------------------------|
    |------------------------------------------------------------------------------------|
    |------------------------------------------------------------------------------------|
    
    |-13p9--------------9h14p9--------------9h15p9----------------9h14p9--------------9h==|
    |--------11----11------------11----11-------------11----11-------------11----11-------|
    |-----------11------------------11-------------------11-------------------11----------|
    |-------------------------------------------------------------------------------------|
    |-------------------------------------------------------------------------------------|
    |-------------------------------------------------------------------------------------|
    |-------------------------------------------------------------------------------------|
    
    |-12p8-------------8h12p8---------------------------------8h12p8-------------8h==|
    |--------10---10------------10-----------------------10------------10---10-------|
    |-----------9------------------9-------------------9------------------9----------|
    |--------------------------------10-------------10-------------------------------|
    |-------------------------------------12p7h12------------------------------------|
    |--------------------------------------------------------------------------------|
    |--------------------------------------------------------------------------------|
    
    |-11p8-------------8h12p8-------------8h14p8-------------8h12p8-------------8h==|
    |--------10---10------------10---10------------10---10------------10---10-------|
    |-----------9------------------9------------------9------------------9----------|
    |-------------------------------------------------------------------------------|
    |-------------------------------------------------------------------------------|
    |-------------------------------------------------------------------------------|
    |-------------------------------------------------------------------------------|
    
      1.
    |-12p7-----------7h12p7-----------------------------7h12p7-----------7h==|
    |--------9---9------------9---------------------9------------9---9-------|
    |----------9----------------9-----------------9----------------9---------|
    |-----------------------------9-------------9----------------------------|
    |---------------------------------11p7h11--------------------------------|
    |------------------------------------------------------------------------|
    |------------------------------------------------------------------------|
    
    |-10p7-----------7h12p7-----------7h13p7-----------7h12p7-----------7---||
    |--------9---9------------9---9------------9---9------------9---9-------||
    |----------9----------------9----------------9----------------9--------o||
    |-----------------------------------------------------------------------||
    |----------------------------------------------------------------------o||
    |-----------------------------------------------------------------------||
    |-----------------------------------------------------------------------||
    
      2.
    |-12p7-----------------------------7-/16p12------------------------------------12--|
    |--------9---------------------9--------------12--------------------------12-------|
    |----------9-----------------9-------------------14--------------------14----------|
    |------------9-------------9------------------------14--------------14-------------|
    |----------------11p7h11---------------------------------12----12------------------|
    |-----------------------------------------------------------12---------------------|
    |----------------------------------------------------------------------------------|
    
    |-/19p16--------------16h19p16--------------16-24-----19-------22-----||
    |----------17----17--------------17----17----------------------22-----||
    |-------------16--------------------16--------------------------------||
    |---------------------------------------------------------------------||
    |---------------------------------------------------------------------||
    |---------------------------------------------------------------------||
    |---------------------------------------------------------------------||

    me trying it out
    http://video.google.com/videoplay?do...06490189174154



    If anyone wants help on any specific pieces, I'd be glad to take a look and give tips as much as i can.
    Last edited by captainhorseboy; 02-09-2007 at 10:33 AM.
    Excuse me, your seatbelt seems to be broken. What do you recommend I do?
    Reply With Quote

  18. #78
    Banned iBswole's Avatar
    Join Date: Jun 2004
    Location: Australia
    Posts: 3,734
    Rep Power: 0
    iBswole is just really nice. (+1000) iBswole is just really nice. (+1000) iBswole is just really nice. (+1000) iBswole is just really nice. (+1000) iBswole is just really nice. (+1000) iBswole is just really nice. (+1000) iBswole is just really nice. (+1000) iBswole is just really nice. (+1000) iBswole is just really nice. (+1000) iBswole is just really nice. (+1000) iBswole is just really nice. (+1000)
    iBswole is offline
    Originally Posted by Snoop06 View Post
    Arp lessons please. Or sweeping in general. I feel like such a noob in this thread .

    I have never really figured out if my right (pick) hand is supposed to be floating or not either. I haven't been playing too long but I don't want to develop to many bad habits.
    Frankly most arp lessons sound like **** so I'm gonna try to include a variety of arp positions - and build connected arp progressions to build up speed etc etc hopefully to the level of

    well its 4:47am here - i'll write up a nice little lesson involving arps later in the day - but for now - what you're basically trying to do is let your picking hand drop from string to string - and you have to play an arp dead slow to get the timing down.

    say you wanted to play
    Code:
    |----------- 12--17- 12-------------------------|
    |---------13------------13----------------------|
    |------12------------------12-------------------|
    |----14----------------------14-----------------|
    |--15--------------------------15---------------|
    |------------------------------------------------|
        4  3  1  2  1    4    1   2  1  3  4
    
    Looks complicated but this was the first real arp
     i ever played since i was obsessed with children of bodom 
    in grade 11. Use the numbers underneath the tab for finger positions 
    1 index
    2 middle
    3 ring
    4 pinky
    what your doing for the down stroke of the arp is letting your picking hand drop from one sting to the next and as you hit a string you should release the fretted note with your fretting hand as you go down. Try playing it clean before you hit the distortion.

    The last 12 -17-12 is a hammer on and pull of before you head back to playing the sweep backwards with an upward sweep. Here you're raking your pick upwards towards you in a smooth and continous manner when you roll the ball of your fingertips over the string to dampen the notes already played.

    Your fretting hand basically forms the 'chord' like apr position one fretted finger at a time till the entire arp is played.

    Damn thats a horrible explanation but i hope you get something out of it. check out google video and youtube for arp or sweep vids.

    Hopefully some other members can help shed sum lite on the topic
    Last edited by Trickae; 02-09-2007 at 12:46 PM.
    Reply With Quote

  19. #79
    Banned iBswole's Avatar
    Join Date: Jun 2004
    Location: Australia
    Posts: 3,734
    Rep Power: 0
    iBswole is just really nice. (+1000) iBswole is just really nice. (+1000) iBswole is just really nice. (+1000) iBswole is just really nice. (+1000) iBswole is just really nice. (+1000) iBswole is just really nice. (+1000) iBswole is just really nice. (+1000) iBswole is just really nice. (+1000) iBswole is just really nice. (+1000) iBswole is just really nice. (+1000) iBswole is just really nice. (+1000)
    iBswole is offline
    Originally Posted by captainhorseboy View Post
    Nevermore's This Godless Endeavor has a good sweeping pattern for practicing slowly

    Code:
    
    
    ||--14p10--------------10h14p10-----------------------------------10h14p10--------------10h=|
    ||----------12----12--------------12-------------------------12--------------12----12-------|
    ||o------------11--------------------11-------------------11--------------------11----------|
    ||--------------------------------------12-------------12-----------------------------------|
    ||o------------------------------------------14p9h14----------------------------------------|
    ||------------------------------------------------------------------------------------------|
    ||------------------------------------------------------------------------------------------|
    
    |-13p10--------------10h14p10--------------10h15p10----------------10h14p10--------------10h==|
    |---------12----12--------------12----12---------------12----12---------------12----12--------|
    |------------11--------------------11---------------------11---------------------11-----------|
    |---------------------------------------------------------------------------------------------|
    |---------------------------------------------------------------------------------------------|
    |---------------------------------------------------------------------------------------------|
    |---------------------------------------------------------------------------------------------|
    
    |-14p9--------------9h14p9-----------------------------------9h14p9--------------9h==|
    |--------11----11------------11-------------------------11------------11----11-------|
    |-----------11------------------11-------------------11------------------11----------|
    |----------------------------------11-------------11---------------------------------|
    |---------------------------------------13p9h13--------------------------------------|
    |------------------------------------------------------------------------------------|
    |------------------------------------------------------------------------------------|
    
    |-13p9--------------9h14p9--------------9h15p9----------------9h14p9--------------9h==|
    |--------11----11------------11----11-------------11----11-------------11----11-------|
    |-----------11------------------11-------------------11-------------------11----------|
    |-------------------------------------------------------------------------------------|
    |-------------------------------------------------------------------------------------|
    |-------------------------------------------------------------------------------------|
    |-------------------------------------------------------------------------------------|
    
    |-12p8-------------8h12p8---------------------------------8h12p8-------------8h==|
    |--------10---10------------10-----------------------10------------10---10-------|
    |-----------9------------------9-------------------9------------------9----------|
    |--------------------------------10-------------10-------------------------------|
    |-------------------------------------12p7h12------------------------------------|
    |--------------------------------------------------------------------------------|
    |--------------------------------------------------------------------------------|
    
    |-11p8-------------8h12p8-------------8h14p8-------------8h12p8-------------8h==|
    |--------10---10------------10---10------------10---10------------10---10-------|
    |-----------9------------------9------------------9------------------9----------|
    |-------------------------------------------------------------------------------|
    |-------------------------------------------------------------------------------|
    |-------------------------------------------------------------------------------|
    |-------------------------------------------------------------------------------|
    
      1.
    |-12p7-----------7h12p7-----------------------------7h12p7-----------7h==|
    |--------9---9------------9---------------------9------------9---9-------|
    |----------9----------------9-----------------9----------------9---------|
    |-----------------------------9-------------9----------------------------|
    |---------------------------------11p7h11--------------------------------|
    |------------------------------------------------------------------------|
    |------------------------------------------------------------------------|
    
    |-10p7-----------7h12p7-----------7h13p7-----------7h12p7-----------7---||
    |--------9---9------------9---9------------9---9------------9---9-------||
    |----------9----------------9----------------9----------------9--------o||
    |-----------------------------------------------------------------------||
    |----------------------------------------------------------------------o||
    |-----------------------------------------------------------------------||
    |-----------------------------------------------------------------------||
    
      2.
    |-12p7-----------------------------7-/16p12------------------------------------12--|
    |--------9---------------------9--------------12--------------------------12-------|
    |----------9-----------------9-------------------14--------------------14----------|
    |------------9-------------9------------------------14--------------14-------------|
    |----------------11p7h11---------------------------------12----12------------------|
    |-----------------------------------------------------------12---------------------|
    |----------------------------------------------------------------------------------|
    
    |-/19p16--------------16h19p16--------------16-24-----19-------22-----||
    |----------17----17--------------17----17----------------------22-----||
    |-------------16--------------------16--------------------------------||
    |---------------------------------------------------------------------||
    |---------------------------------------------------------------------||
    |---------------------------------------------------------------------||
    |---------------------------------------------------------------------||

    me trying it out
    http://video.google.com/videoplay?do...06490189174154



    If anyone wants help on any specific pieces, I'd be glad to take a look and give tips as much as i can.
    Jesus captain'

    IS that an IBANEZ RG550 EX ? then damn we have the same damn guitar - if only i could sweep like that!
    Reply With Quote

  20. #80
    assthetics captainhorseboy's Avatar
    Join Date: Feb 2006
    Location: Ohio, United States
    Age: 33
    Posts: 25,145
    Rep Power: 37653
    captainhorseboy has much to be proud of. One of the best! (+20000) captainhorseboy has much to be proud of. One of the best! (+20000) captainhorseboy has much to be proud of. One of the best! (+20000) captainhorseboy has much to be proud of. One of the best! (+20000) captainhorseboy has much to be proud of. One of the best! (+20000) captainhorseboy has much to be proud of. One of the best! (+20000) captainhorseboy has much to be proud of. One of the best! (+20000) captainhorseboy has much to be proud of. One of the best! (+20000) captainhorseboy has much to be proud of. One of the best! (+20000) captainhorseboy has much to be proud of. One of the best! (+20000) captainhorseboy has much to be proud of. One of the best! (+20000)
    captainhorseboy is offline
    its an ibanez jem dbk model


    also, i have a few lessons i've written for friends at home with string skipping and sequenced arpeggios that i'll post this weekend
    Excuse me, your seatbelt seems to be broken. What do you recommend I do?
    Reply With Quote

  21. #81
    R[̲̅ə̲̅٨̲̅٥̲̅٦̲̅]ution snwdevl10's Avatar
    Join Date: Feb 2006
    Posts: 2,345
    Rep Power: 3466
    snwdevl10 is a glorious beacon of knowledge. (+2500) snwdevl10 is a glorious beacon of knowledge. (+2500) snwdevl10 is a glorious beacon of knowledge. (+2500) snwdevl10 is a glorious beacon of knowledge. (+2500) snwdevl10 is a glorious beacon of knowledge. (+2500) snwdevl10 is a glorious beacon of knowledge. (+2500) snwdevl10 is a glorious beacon of knowledge. (+2500) snwdevl10 is a glorious beacon of knowledge. (+2500) snwdevl10 is a glorious beacon of knowledge. (+2500) snwdevl10 is a glorious beacon of knowledge. (+2500) snwdevl10 is a glorious beacon of knowledge. (+2500)
    snwdevl10 is offline
    Originally Posted by Trickae View Post
    Frankly most arp lessons sound like **** so I'm gonna try to include a variety of arp positions - and build connected arp progressions to build up speed etc etc hopefully to the level of Frankly most arp lessons sound like **** so i'm gonna try to include a variety of arp positions - and build connected arp progressions to build up speed etc etc hopefully to the level of mindripper some day some day
    Thanks, that cleared things up pretty well for me...I'm having trouble getting any speed right now but I think I just need practice. That pattern is actually the same as the one that is in the song I'm trying to get down, just starting o n a different fret, is that a common arp patten? The song I'm trying to learn is Canon Rock btw, I can get most of it except the sweeping.

    http://youtube.com/watch?v=fN4fIRjMf-M

    Not me lol, but that's the song.

    Originally Posted by captainhorseboy View Post
    Nevermore's This Godless Endeavor has a good sweeping pattern for practicing slowly

    If anyone wants help on any specific pieces, I'd be glad to take a look and give tips as much as i can.
    Wow, that was great man. How long have you been playing for? Also, i couldn't tell in the video, but do you rest your picking hand/wrist on the bridge, or is it floating?
    Reply With Quote

  22. #82
    assthetics captainhorseboy's Avatar
    Join Date: Feb 2006
    Location: Ohio, United States
    Age: 33
    Posts: 25,145
    Rep Power: 37653
    captainhorseboy has much to be proud of. One of the best! (+20000) captainhorseboy has much to be proud of. One of the best! (+20000) captainhorseboy has much to be proud of. One of the best! (+20000) captainhorseboy has much to be proud of. One of the best! (+20000) captainhorseboy has much to be proud of. One of the best! (+20000) captainhorseboy has much to be proud of. One of the best! (+20000) captainhorseboy has much to be proud of. One of the best! (+20000) captainhorseboy has much to be proud of. One of the best! (+20000) captainhorseboy has much to be proud of. One of the best! (+20000) captainhorseboy has much to be proud of. One of the best! (+20000) captainhorseboy has much to be proud of. One of the best! (+20000)
    captainhorseboy is offline
    started playing freshman year in high school. i just graduated college, so about 8 years. i'd say i rest my hand on the bridge. its funny i cant really remember and would have to play to check.
    Excuse me, your seatbelt seems to be broken. What do you recommend I do?
    Reply With Quote

  23. #83
    Registered User Kmess's Avatar
    Join Date: Jul 2006
    Location: Houston
    Age: 30
    Posts: 569
    Rep Power: 186
    Kmess is on a distinguished road. (+10) Kmess is on a distinguished road. (+10) Kmess is on a distinguished road. (+10) Kmess is on a distinguished road. (+10) Kmess is on a distinguished road. (+10) Kmess is on a distinguished road. (+10) Kmess is on a distinguished road. (+10) Kmess is on a distinguished road. (+10) Kmess is on a distinguished road. (+10) Kmess is on a distinguished road. (+10) Kmess is on a distinguished road. (+10)
    Kmess is offline
    Hey guys, I just started playing guitar like 5 days ago... Im trying to break the habit of looking down at my strumming hand rather than my fret hand
    Reply With Quote

  24. #84
    I own you in RL Frihando's Avatar
    Join Date: May 2006
    Location: round chicago
    Age: 31
    Posts: 258
    Rep Power: 150
    Frihando has no reputation, good or bad yet. (0) Frihando has no reputation, good or bad yet. (0) Frihando has no reputation, good or bad yet. (0) Frihando has no reputation, good or bad yet. (0) Frihando has no reputation, good or bad yet. (0) Frihando has no reputation, good or bad yet. (0) Frihando has no reputation, good or bad yet. (0) Frihando has no reputation, good or bad yet. (0) Frihando has no reputation, good or bad yet. (0) Frihando has no reputation, good or bad yet. (0) Frihando has no reputation, good or bad yet. (0)
    Frihando is offline
    Originally Posted by Kmess View Post
    Hey guys, I just started playing guitar like 5 days ago... Im trying to break the habit of looking down at my strumming hand rather than my fret hand
    actually i think that is great for beginners, because u learn the strings,

    eventually you will stop looking at them once you learn them, and focus on the fingers, then eventually you wont need tolook at all
    I touch myself at night with Icy hot.
    Reply With Quote

  25. #85
    Registered User lacey23's Avatar
    Join Date: Feb 2002
    Location: canada
    Posts: 5,058
    Rep Power: 1665
    lacey23 is just really nice. (+1000) lacey23 is just really nice. (+1000) lacey23 is just really nice. (+1000) lacey23 is just really nice. (+1000) lacey23 is just really nice. (+1000) lacey23 is just really nice. (+1000) lacey23 is just really nice. (+1000) lacey23 is just really nice. (+1000) lacey23 is just really nice. (+1000) lacey23 is just really nice. (+1000) lacey23 is just really nice. (+1000)
    lacey23 is offline
    What is a good way to get off a plateau?

    I've been playing for about a year and a half/ 2years, can play pentatonic pretty handily,and mostly medium difficulty songs (hey joe, the general, over the hills etc.) Problem is I feel like I'm not really getting better anymore. Anybody have this, and whats a good thing to learn to take the next step.
    lacey23 on ssb
    Reply With Quote

  26. #86
    I own you in RL Frihando's Avatar
    Join Date: May 2006
    Location: round chicago
    Age: 31
    Posts: 258
    Rep Power: 150
    Frihando has no reputation, good or bad yet. (0) Frihando has no reputation, good or bad yet. (0) Frihando has no reputation, good or bad yet. (0) Frihando has no reputation, good or bad yet. (0) Frihando has no reputation, good or bad yet. (0) Frihando has no reputation, good or bad yet. (0) Frihando has no reputation, good or bad yet. (0) Frihando has no reputation, good or bad yet. (0) Frihando has no reputation, good or bad yet. (0) Frihando has no reputation, good or bad yet. (0) Frihando has no reputation, good or bad yet. (0)
    Frihando is offline
    Originally Posted by lacey23 View Post
    What is a good way to get off a plateau?

    I've been playing for about a year and a half/ 2years, can play pentatonic pretty handily,and mostly medium difficulty songs (hey joe, the general, over the hills etc.) Problem is I feel like I'm not really getting better anymore. Anybody have this, and whats a good thing to learn to take the next step.
    been there, dude best way to get over that, play songs that are new, look up new bands that you never heard of play random stuff...

    Or join a band yourself, honestly gotta have fun with it and not look at it as a way to improve your skill level.. Alot of time being good just comes with the time...
    I touch myself at night with Icy hot.
    Reply With Quote

  27. #87
    \M/etal Mod Mindripper's Avatar
    Join Date: May 2006
    Location: Vermont, United States
    Age: 44
    Posts: 14,495
    Rep Power: 24495
    Mindripper has much to be proud of. One of the best! (+20000) Mindripper has much to be proud of. One of the best! (+20000) Mindripper has much to be proud of. One of the best! (+20000) Mindripper has much to be proud of. One of the best! (+20000) Mindripper has much to be proud of. One of the best! (+20000) Mindripper has much to be proud of. One of the best! (+20000) Mindripper has much to be proud of. One of the best! (+20000) Mindripper has much to be proud of. One of the best! (+20000) Mindripper has much to be proud of. One of the best! (+20000) Mindripper has much to be proud of. One of the best! (+20000) Mindripper has much to be proud of. One of the best! (+20000)
    Mindripper is offline
    Originally Posted by lacey23 View Post
    What is a good way to get off a plateau?

    I've been playing for about a year and a half/ 2years, can play pentatonic pretty handily,and mostly medium difficulty songs (hey joe, the general, over the hills etc.) Problem is I feel like I'm not really getting better anymore. Anybody have this, and whats a good thing to learn to take the next step.

    Take some lessons. A good guitar teacher who respect and want to play with is a great motivator. I had already been playing (off and on) for over 15 years before I took serious lessons. First month was all filling in the gaps and learning to play with better technique/discipline. After that, most of the time we just jammed going over bits of whatever style I was interested in. He was a jazz, classical, flamenco player which is the polar opposite of me but it really worked and helped me grow as a player and musician.
    Semper Fi

    Hope is a good thing, maybe the best of things, and no good thing ever dies...
    Reply With Quote

  28. #88
    UWO Mustang Way_2_Skinny!'s Avatar
    Join Date: Jan 2004
    Posts: 2,219
    Rep Power: 706
    Way_2_Skinny! is a jewel in the rough. (+500) Way_2_Skinny! is a jewel in the rough. (+500) Way_2_Skinny! is a jewel in the rough. (+500) Way_2_Skinny! is a jewel in the rough. (+500) Way_2_Skinny! is a jewel in the rough. (+500) Way_2_Skinny! is a jewel in the rough. (+500) Way_2_Skinny! is a jewel in the rough. (+500) Way_2_Skinny! is a jewel in the rough. (+500) Way_2_Skinny! is a jewel in the rough. (+500) Way_2_Skinny! is a jewel in the rough. (+500) Way_2_Skinny! is a jewel in the rough. (+500)
    Way_2_Skinny! is offline
    bump
    can we get serious begginer stuff
    holding the guitar, hand position
    wheres a great place to learn chords...like actual finger diagrams??or can u hold them anyway u want ( although i hear there are specifics to improve your progression)
    Happiness depends upon ourselves - Aristotle
    Reply With Quote

  29. #89
    I own you in RL Frihando's Avatar
    Join Date: May 2006
    Location: round chicago
    Age: 31
    Posts: 258
    Rep Power: 150
    Frihando has no reputation, good or bad yet. (0) Frihando has no reputation, good or bad yet. (0) Frihando has no reputation, good or bad yet. (0) Frihando has no reputation, good or bad yet. (0) Frihando has no reputation, good or bad yet. (0) Frihando has no reputation, good or bad yet. (0) Frihando has no reputation, good or bad yet. (0) Frihando has no reputation, good or bad yet. (0) Frihando has no reputation, good or bad yet. (0) Frihando has no reputation, good or bad yet. (0) Frihando has no reputation, good or bad yet. (0)
    Frihando is offline
    Originally Posted by Way_2_Skinny! View Post
    bump
    can we get serious begginer stuff
    holding the guitar, hand position
    wheres a great place to learn chords...like actual finger diagrams??or can u hold them anyway u want ( although i hear there are specifics to improve your progression)
    yo, TO learn how to hold, I would just watch one of hte videos in this thread honestly..

    Some very easy begginer songs....

    Amazing grace, wedding march, jingle bells, rrow roow your boat, you are my sun shine, ode to joy, frere jaya ka(sp), smoke on the water, dude just check these out,

    and just go to those guitar sites and type in beginner...
    I touch myself at night with Icy hot.
    Reply With Quote

  30. #90
    R[̲̅ə̲̅٨̲̅٥̲̅٦̲̅]ution snwdevl10's Avatar
    Join Date: Feb 2006
    Posts: 2,345
    Rep Power: 3466
    snwdevl10 is a glorious beacon of knowledge. (+2500) snwdevl10 is a glorious beacon of knowledge. (+2500) snwdevl10 is a glorious beacon of knowledge. (+2500) snwdevl10 is a glorious beacon of knowledge. (+2500) snwdevl10 is a glorious beacon of knowledge. (+2500) snwdevl10 is a glorious beacon of knowledge. (+2500) snwdevl10 is a glorious beacon of knowledge. (+2500) snwdevl10 is a glorious beacon of knowledge. (+2500) snwdevl10 is a glorious beacon of knowledge. (+2500) snwdevl10 is a glorious beacon of knowledge. (+2500) snwdevl10 is a glorious beacon of knowledge. (+2500)
    snwdevl10 is offline
    Originally Posted by Way_2_Skinny! View Post
    bump
    can we get serious begginer stuff
    holding the guitar, hand position
    wheres a great place to learn chords...like actual finger diagrams??or can u hold them anyway u want ( although i hear there are specifics to improve your progression)
    Here is a good link with lots of basic information.

    http://ultimate-guitar.com/lessons/for_beginners/
    Reply With Quote

Posting Permissions

  • You may not post new threads
  • You may not post replies
  • You may not post attachments
  • You may not edit your posts